Misc Computer Games - Super Mario Brothers Theme tab

e|-------------3--|
B|---5-5-5---5----|
G|---------5------|
D|---------------5|
A|----------------|
E|----------------|

e|------------------5-----------|
B|--------------5-8---6-8-5-----|
G|-5-----------------------574/5|}X2
D|--5--7-98-7-5-----------------|}
A|---7--------------------------|
E|------------------------------|

e|---------------------8-88---------------------|
B|-876-5----------876-5------876-5--------------|
G|----8----5-5h7-----8----------8----5-5h7-8-7-5|}X2
D|------6/7-7---------------------6/7-7----7-5-3|}
A|----------------------------------------------|
E|----------------------------------------------|

e|----------------------------------------3|
B|--------5-----------5---------5----555-5-|
G|-55-5-57-5---55-5-57---55-5-57-5------5--|
D|----------75--------------------75-------|
A|-----------------------------------------|
E|-----------------------------------------|

e|---------------------8-88---------------------|
B|-876-5----------876-5------876-5--------------|
G|----8----5-5h7-----8----------8----5-5h7-8-7-5|
D|------6/7-7---------------------6/7-7----7-5-3|
A|----------------------------------------------|
E|----------------------------------------------|

e|-------------------------------------------------------------------|
B|-5------66------10-1010-10-8----------5------6-6-------------------|
G|--5-------------------------10-97------5--------------101010-9-7-5-|
D|---5-6-7--7--7/9------------------65----5-6-7---7--7/9-------------|
A|-------------------------------------------------------------------|
E|-------------------------------------------------------------------|
Tap to rate this tab
 
# A B C D E F G H I J K L M N O P Q R S T U V W X Y Z