Misc Computer Games - Zombie Farm Theme tab

-------------------------------------------------------------------------------
			                              Zombie Farm
-------------------------------------------------------------------------------

Sounds best with fingerpicking, thumb and forefinger seems easiest.

|--------------------------------------------|
|- Credit for this tab goes to Aaron Grimes -|
|--------------------------------------------|

Tuning: EADGBe

   G   C9
|--3---3--|e
|---------|B
|---------|G
|------2--|D
|--2---3--|A
|--3------|E    

    G                               C9
e|----0---0---0---0---0---0---0---0---0---0---0---0---0----------------------|
B|---------------------------------------------------------------------------|
G|------------------------------------------0--------------------------------|
D|----------0---------------0-----------2-------2----------------------------|
A|------2-------2-------2-------2---3---------------3------------------------|
E|--3---------------3--------------------------------------------------------|
Tap to rate this tab
 
# A B C D E F G H I J K L M N O P Q R S T U V W X Y Z