Misc Computer Games - Black Tiger Theme tab

guitar Tuned to E flat

Music from the Arcade Game Black Dragon/Black tiger
Composed by Tamasan

*******************************************************************

D#---------------------------------------------------------|
A#---------------------------------------3---3-5-6-3-5-----|
F#--3-6-4------3-5-6-3-4-----3-5-6-3-4-6---4-----------5-2-|
C#---------4-------------4---------------------------------|
G#-----------6-------------6-------------------------------|
D#---------------------------------------------------------|

Same thing but up one octave

D#--6-9-7-----6-8-9-6-7-----6-8-9-6-7-9-10-7-10-12-13-10-12-------|
A#--------7-------------7-----------------------------------13-10-|
F#----------8-------------8---------------------------------------|
C#----------------------------------------------------------------|
G#----------------------------------------------------------------|
D#----------------------------------------------------------------|

D#-10---------------------------------------------------------------------|
A#----13-11-10-10----------10----------10---------------------------11-13-|
F#----------------12-10-12----12-10-12----10-9-10-----------9-11-13-------|
C#------------------------------------------------11-11-12----------------|
G#------------------------------------------------------------------------|
D#------------------------------------------------------------------------|

D#----12-----------------------------------------------------------|
A#-15----------------------------15-17-13-15-17--------------------|
F#--------------------13--15--17-----------------------------------|
C#---------12--14--16----------------------------------------------|
G#-----------------------------------------------------------------|
D#-----------------------------------------------------------------|

////////////////////////////////////////////////////////////////////

Second harmony, this is played over top
D#--8-6---------------------------------5-3-0-----------------|
A#------6-4-6-4-6---4-------------2-3-5-------1---------------|
F#--------------------4-2-3-1-3-4-----------------------------|
C#------------------------------------------------------------|
G#------------------------------------------------------------|
D#------------------------------------------------------------|

the same thing but without one note. Played one octave higher

D#-20-18----------------------------------------------17-15-12------|
A#-------18--16-18-16-18---16-------------------14-15----------13---|
F#----------------------------16-14-15-13-15-16---------------------|
C#------------------------------------------------------------------|
G#------------------------------------------------------------------|
D#------------------------------------------------------------------|

Now the hard part.

D#-10--8---6--5--5-3-1-3-5-3-1-3-5--1-0-1----------------------------|
A#-11--10--8--6--6-4-3-4-8-4-3-4-4--2-2-2--2--2-3-5-7-9-11-13-15-17--|
F#-----------------------------------------3--3-3-5-7-9-11-13-15-17--|
C#-------------------------------------------------------------------|
G#-------------------------------------------------------------------|
D#-------------------------------------------------------------------|

D#---------------------------------------------------------------|
A#-----------------------------15-17-13-15-17--------------------|
F#------------------13--15--17-----------------------------------|
C#-------12--14--16----------------------------------------------|
G#---------------------------------------------------------------|
D#---------------------------------------------------------------|

For a recording Youtube 'Black Tiger Arcade Level One Music'
Tap to rate this tab
 
# A B C D E F G H I J K L M N O P Q R S T U V W X Y Z