Song name
# A B C D E F G H I J K L M N O P Q R S T U V W X Y Z

Misc Computer Games - Kingdom Hearts 2 - My Sanctuary tab

e|---------------------------------------------|
B|--10-9------9--------9--12-------------------|
G|9------9-11---9-9-----------9-8--------9-----|
D|---------------------------------------------|
A|---------------------------------------------|
E|---------------------------------------------|

e|---------------------------------------------|
B|--7-7-7--9-----10-9------------10-9----------|
G|-------------9-------9-11----9------9-11-----|
D|------------------------------------------11-|
A|---------------------------------------------|
E|---------------------------------------------|

e|---------------------------------------------|
B|--10-9------9------9--12---------------------|
G|9------9-11---9-9---------9-8-----------9----|
D|---------------------------------------------|
A|---------------------------------------------|
E|---------------------------------------------|

e|---------------------------------------------|
B|--7-7-7--9-----10-9-----------10-9-----------|
G|-------------9------9-11----9------9-11------|
D|------------------------------------------11-|
A|---------------------------------------------|
E|---------------------------------------------|

e|---------------------------------------------|
B|--------------9------------------------------|
G|-----9---11------------9h11p9----------------|
D|--11--------------11-------------------------|
A|---------------------------------------------|
E|---------------------------------------------|

e|---------------------------------------------|
B|---10----9--------------------9--------------|
G|-------------9-------------------------------|
D|------------------9-11-----------------------|
A|---------------------------------------------|
E|---------------------------------------------|

then you just repeat all over again... (thats all i got btw)
If it helps, you can also sing along with it, just to understand the timing of the song. =)
Tap to rate this tab
 
# A B C D E F G H I J K L M N O P Q R S T U V W X Y Z