Misc Computer Games - Donkey Kong 3 - Level 2 Donkey Kong Falls tab

level 2 donkey kong falls


donkey kong 3


TRANSCRIBED BY RUDY GUZMAN


guzman_84@hotmail.com




                                               
e:----------------------------7--------------7------|
B:----------12--------------8---8----------8---8----|
G:-------12----12---------7-------7------7--------7-|
D:----12----------12----9-------------10------------|
A:-10-----------------------------------------------|
E:--------------------------------------------------|



e:------------------------------------------------|
B:------9-10-9-----0---0--------------------------|
G:----9--------9---0---0--------------------------|
D:-11---------------------------------------------|
A:------------------------------------------------|
E:-----------------11--10h11p10h11p10h11p10h11p10-|










hillo son mex




7/04/11
Tap to rate this tab
 
# A B C D E F G H I J K L M N O P Q R S T U V W X Y Z