Misc Computer Games - Tetris - Type A tab

                                Tetris-A


This is my first Tab, so if there's any problems tell me and I'll try to fix them.


Standard Tuning


e||-7-2-3-5-3-2-0-0-3-7-5-3-2-2-3-5-7-3-0-0--|
B||------------------------------------------|
G||------------------------------------------|
D||------------------------------------------|
A||------------------------------------------|
E||------------------------------------------|

e||-0-2-3-5-8-12-10-8-7-3-7-5-3-2-2-3-5-7-3-0-0--|
B||----------------------------------------------|
G||----------------------------------------------|
D||----------------------------------------------|
A||----------------------------------------------|
E||----------------------------------------------|

e||-7--3--5--2--3--0---2----7--3--5--2--0-3-12--11--||
B||------------------4------------------------------||
G||-------------------------------------------------||
D||-------------------------------------------------||
A||-------------------------------------------------||
E||-------------------------------------------------||
Tap to rate this tab
 
# A B C D E F G H I J K L M N O P Q R S T U V W X Y Z