Song name
# A B C D E F G H I J K L M N O P Q R S T U V W X Y Z

Misc Computer Games - Dead Island - Trailer Theme tab

Dead Island Trailer Theme
Tabbed by Jefenry

Tuning - F#ADGBe
Drop the low E string to a F#
Capo ADGBe strings at the 6th fret

Trailer: http://www.youtube.com/watch?v=lZqrG1bdGtg

E |---------|---------|---------|--------|X
B |---------|---------|---------|-1------|X
G |-0-------|-0-------|-0-------|-2------|X <-- Capo
D |---2-3-2-|---2-3-2-|---2-3-2-|--------|X
A |-3---3---|-3---3---|-3---3---|-3------|X
F#|---------|---------|---------|--------|  <-- No Capo

E |---------|---------|-----0---|-0------|
B |---------|---------|-1-------|-1------|
G |-0-------|-0-------|-0-------|-0------|
D |---2-3-2-|---2-3-2-|---2-3-2-|--------|
A |-3---3---|-3---3---|-3---3---|-3------|
F#|---------|---------|---------|--------|

E |---------|----------|-0-------|-0--------|
B |---------|-1-----1h3|---------|-1--------|
G |-0-------|-0--------|-0-------|-0-----0--|
D |---2-3-2-|---2-3-2--|---2-3-2-|---2-3----|
A |-3---3---|-3---3----|-3---3---|-3--------|
F#|---------|----------|---------|----------|

E |---------|---------|---------|-0------|
B |---------|---------|-1---3-1-|-1------|
G |-0-------|-0-------|---------|-2------|
D |---2-3-2-|---2-3-2-|---------|------3-|
A |-3---3---|-3---3---|-3-------|-3------|
F#|---------|---------|---------|--------|

E |---------|---------|---------|---------|
B |---------|---------|---------|-1-------|
G |-0-------|-0-------|-0-------|-0-----0-|
D |---2-3-2-|---2-3-2-|---2-3-2-|---2-3---|
A |---3---3-|---3---3-|---3---3-|-3-----3-|
F#|-0-----0-|-9-------|-7-------|-0-------|

E |---------|---------|---------|---------|
B |---------|---------|---------|-1-------|
G |-0-------|-0-------|-0-------|-0-----0-|
D |---2-3-2-|---2-3-2-|---2-3-2-|---2-3---|
A |---3---3-|---3---3-|---3---3-|-3-----3-|
F#|-0-----0-|-9-------|-7-------|---------|

E |---------|---------|---------|---------|
B |---------|-1-------|-1-------|-1-----3-|
G |-0---2-0-|-2-------|-0-------|-0-----0-|
D |---2-3-2-|---2-3-2-|---2-3-2-|---2-3---|
A |---3---3-|---3---3-|---3---3-|-3-----3-|
F#|-0-----0-|-9-------|-7-------|---------|

E |-0-------|---------|---------|---------|
B |---------|---------|-3-------|-1-------|
G |-0-------|-0-------|-0-------|-0-----0-|
D |---2-3-2-|---2-3-2-|---2-3-2-|---2-3---|
A |---3---3-|---3---3-|---3---3-|-3-----3-|
F#|-0-----0-|-9-------|-7-------|---------|

E |-0-------|---------|---------|----|
B |---------|---------|---------|-1--|
G |-0-------|-0-------|-0-------|-0--|
D |---2-3-2-|---2-3-2-|---2-3-2-|----|
A |---3---3-|---3---3-|---3---3-|-3--|
F#|-0-----0-|-9-------|-7-------|----|

E |---------|---------|---------|--------|-------|
B |---------|---------|---------|-1-----3|---(1)-|
G |-0-------|-0-----0-|-0-------|-0------|-------|
D |---2-3-2-|---2-3---|---2-3-2-|--------|----2--|
A |-3---3---|-3---3---|-3---3---|-3------|----3--|
F#|---------|---------|---------|--------|-------|
Tap to rate this tab
 
# A B C D E F G H I J K L M N O P Q R S T U V W X Y Z