Song name
# A B C D E F G H I J K L M N O P Q R S T U V W X Y Z

Misc Computer Games - Megaman 2 - Flashman Theme tab

Tempo = 148
Megaman 2 - Flashman Theme

Legend
L - tied note
x - dead note
h - hammer on/pull off
b - bend
s - slide
~ - vibrato
g - ghost note
> - accentuated note
t - trill
M - palm mute
. - staccato
P - popping (bass)
S - slapping (bass)
+ - tapping
W - wide vibrato
< - fade in
w - whammy bar
= - tremolo picking
v - brush up
^ - brush down
V - pick stroke up
n - pick stroke down


E |----------------------------------------------------|
B |----------------------------------------------------|
G |--------------------4-----7--------6----------------|
D |--------------5-----------------------------7-------|
A |--7-------------------------------------------------|
E |----------------------------------------------------|


----------------------------------------------------|
----------------------------------------------------|
--5--------4----------------------------------------|
--------------------5-----7-----5-------------------|
--------------------------------------7--5-----7----|
----------------------------------------------------|


----------------------------------------------------|
--------7--7--7--8--------7--7--7--8----------------|
----------------------------------------------------|
----------------------------------------------------|
----------------------------------------------------|
----------------------------------------------------|


-----------------------7-----7---------------------||
--------7--7--7--8--------------10----8-----7------||
--------------------------------------------------o||
--------------------------------------------------o||
---------------------------------------------------||
---------------------------------------------------||


----------------------------------------||---------------------------|
--10-10----10----10----10s12------------||-------12-10-12----10------|
----------------------------------------||o---9-----------------12---|
----------------------------------------||o--------------------------|
----------------------------------------||---------------------------|
----------------------------------------||---------------------------|


----------------------------|----------------------------|
--10-12---------------------|----------------------------|
-----------9-----------12---|--11----11----11-9-----9L---|
----------------------------|--------------------12------|
----------------------------|----------------------------|
----------------------------|----------------------------|


----------------------------|----------------------------|
-----------------------10---|--------12-10-12----10------|
--9--------------9--12------|-----9-----------------12---|
----------------------------|----------------------------|
----------------------------|----------------------------|
----------------------------|----------------------------|


----------------------------|----------------------------|
--10-12---------------------|-----------------10---------|
-----------9-----------12---|--11----11----11----11-9L---|
----------------------------|----------------------------|
----------------------------|----------------------------|
----------------------------|----------------------------|


----------------------------|--10---|----------|----------------------------|
-----------------------12---|-------|--14-13---|----------------------------|
--9--------------9--12------|-------|----------|--12----------------12-14---|
----------------------------|-------|----------|-----14----------14---------|
----------------------------|-------|----------|----------------------------|
----------------------------|-------|----------|----------------------------|


----------------------------|-------|----------|----------------------------|
----------------------------|--15---|--14-13---|----------------------------|
--15-16-15-16-14-12---------|-------|----------|--12----------------12-14---|
--------------------14-12---|-------|----------|-----14----------14---------|
----------------------------|-------|----------|----------------------------|
----------------------------|-------|----------|----------------------------|


--------------------17-19--|||
--17----------16-19--------|||
-----16-16-16-------------o|||
--------------------------o|||
---------------------------|||
---------------------------|||

Tap to rate this tab
 
# A B C D E F G H I J K L M N O P Q R S T U V W X Y Z