Misc Computer Games - Portal 2 - Turret Opera Song tab

			                          Portal 2 Turret Opera Guitar Tab
#----------------------------------PLEASE NOTE---------------------------------#
#This file is the author's own work and represents their interpretation of the #
#song. You may only use this file for private study, scholarship, or research. #
#------------------------------------------------------------------------------#

Song by :Steam Valve Corporation
Tabbed by: TheREALNards3000
Retabbed again in notepad by:Shinobi027 Kenny K.
Email: Shinbobi_kenobi@hotmail.com

Tuning: Standard

I was searching for guitar covers of the Opera song in Portal 2 
by the turrets and stumbled upon TheREALNards3000 cover of it 
which was wonderful.  However, he did not have a digital copy 
so I took it upon myself to recreate it in notepad from another 
video he uploaded showing the tabs on paper.  If anyone knows the 
real artist and find anything wrong with this, please email me :).

http://store.steampowered.com/app/620/

Gtr I (E A D G B e) - 'untitled'

	Q-110
	4/4
	Gtr I

    Q   Q  Q   E  E  E E  Q   Q   E E  Q  Q  Q   Q Q  Q   E E  Q
e|---------8--------10-8------------8-10--8--------8--------8-10----|
B|-10--11-----11-10------11--10--11-------------11-------11---------|
G|-----10-----10---------10------10-------8------8----8-------11----|
D|--8------8---------8--------8--------8-----8-----8------8---------|
A|------------------------------------------------------------------|
E|------------------------------------------------------------------|

   E  E  Q   Q  E  E   E  E  Q   Q   E  E  Q  Q  Q  Q   W
e|-8------------8------------8--11--10----10--8---------------------|
B|---11-11--11----11--10-11------------13-----8-11-10--11-----------|
G|------10-----10-----------10------12------------------------------|
D|-8---------8---------8------------------10----12-10---8-----------|
A|------------------------------------------------------------------|
E|------------------------------------------------------------------|

    Q  Q   Q   Q  Q   Q  E  E Q  E  E  Q  Q Q   E  E  H  Q    Q   W
e|-10--8----------8--10--8----8-10-11-11-10-8------8--8-------------|
B|--------11--11-----------11------------------11--------11--10--11-|
G|------------------------------------------------------------------|
D|------------------------------------------------------------------|
A|------------------------------------------------------------------|
E|------------------------------------------------------------------|

    Q   Q   Q   E  E  E E  Q   Q   E E  Q  Q  Q   Q   Q   Q   E E  Q
e|----------8--------10-8------------7-10--8----------8---------8-10|
B|-10--11------11-10------11--10--11-------------11----------11-----|
G|-10--10--10--10-----7----7---7---7----8--8--8---8-----------------|
D|---------------------------------------------------10--10--10---10|
A|------------------------------------------------------------------|
E|------------------------------------------------------------------|



   Q   Q   E E Q   Q   Q   Q   Q E  E E E  E  E  E  E E  Q  Q    Q   E  E
e|-8---------8-8----------11--10-8-10---8-------------8---------10---8----|
B|----11--11------10--13----------------8----11-10-11------------------11-|
G|-7---7---7---7----------------------8----8-----8----8-10--10--10--10----|
D|----------------10--10--10--10---10-------------------------------------|
A|------------------------------------------------------------------------|
E|------------------------------------------------------------------------|

    E E  Q   Q   Q   Q   E  E  E  E  E  E  Q   Q   Q   E  E  Q   Q   Q   Q
e|----8-------------13--------------------------------10-11-11----------------|
B|-11---11--10--11------16-15-13----13-15-15--13----------------15--13--15----|
G|-------------------------------15-------------------------------------------|
D|--8----8---8---8------------------------------------------------------------|
A|------------------12--12----12----12----10--10--10--10----------------------|
E|----------------------------------------------------------11--11--11--11----|

   Q   Q   Q  Q   Q  E  E E  E E  E  Q   Q  Q    Q   Q   Q   Q   Q
e|-8----------8--10--8----8-10---11-11--10--8--------8--------------------|
B|----11--11-----------11-----------------------11----------11--10--------|
G|------------------------------------8---8--8---8--10--10--10--10--------|
D|-8---8---8--8---8--8----8----8------------------------------------------|
A|------------------------------------------------------------------------|
E|------------------------------------------------------------------------|

    Q  Q   Q  E  E  E  E  Q   Q   E  E  Q   Q   Q   Q   Q   Q  E  E Q
e|-----8--10--8------------------------------------11--11--10--8----8----------|
B|-11-----------11-13-11-10------11-13-15--13--------------------11------------|
G|-----------------------------------------------------------------------------|
D|--8--8---7--7----------------------------------------------------------------|
A|-----------------10----10--10--10---------------------8---8--8----8----------|
E|-------------------------------------11--11--11--11--------------------------|

    W
e|-10----|
B|-11----|
G|-------|
D|--8----|
A|-------|
E|-------|
Tap to rate this tab
 
# A B C D E F G H I J K L M N O P Q R S T U V W X Y Z