Song name
# A B C D E F G H I J K L M N O P Q R S T U V W X Y Z

Misc Computer Games - Perfect Dark Zero - Title tab

Artist: David Clynick

Artist's Myspace: http://www.myspace.com/davidclynick

Album: Perfect Dark Zero
Song: Perfect Dark Zero - Title
Tabbed By: A Dead Fly

Transcribed for two guitars and one bass all with standard tuning

Rythym Guitar (enters at 0:04):

e|-3-------------3-|
B|----5-----5--5---|
G|-------4---------| Plays this through the whole song (12 times)
D|-----------------|
A|-----------------|
E|-----------------|

End on this note:

e|----------------|
B|-5\-------------|
G|----------------|
D|----------------|
A|----------------|
E|----------------|


Lead Guitar (enters at 0:10):

e|-12-------------|-------------12-|----------------|----------------|
B|-----12---------|----------------|-11-------------|-----------10-8-|
G|----------------|----------------|----------------|----------------|
D|----------------|----------------|----------------|----------------|
A|----------------|----------------|----------------|----------------|
E|----------------|----------------|----------------|----------------|

e|----------------|----------------|----------------|----------------|
B|-12-------------|----------------|-------------8//|/12-------------|
G|------9---------|---------/11-12-|-14-------------|----------14-12-|
D|----------------|----------------|----------------|----------------|
A|----------------|----------------|----------------|----------------|
E|----------------|----------------|----------------|----------------|

e|----------------|----------------|
B|-12-------------|----------------|
G|----------------|----------------|
D|-----14---------|----------------|
A|----------------|----------------|
E|----------------|----------------|

e|--17b18---------------------------------------------------------|
B|------------17h20p17p15p14T12p11h12p11p10p8--10b11--------------|
G|--------------------------------------------------12p9v----\\\--|
D|----------------------------------------------------------------|
A|----------------------------------------------------------------|
E|----------------------------------------------------------------|


Bass (enters at 0:10):

G|-------------------------|
D|--2---2--0h2-0h2-0h2--2--|
A|-------------------------| Play 6 times
E|-------------------------|

G|---------------------------------|
D|---------------------------------|
A|-5-5-3h5-5-5-3h5---3h5-5-5-3-5-5-|
E|---------------------------------|

G|---------------------------|
D|---------------------------|
A|-3---3--0h3---3--0h3-3-0-0-|
E|---------------------------|

G|-------------------------|
D|--2---2--0h2-0h2-0h2--2--|
A|-------------------------| Play 2 times
E|-------------------------|

G|----------------|
D|----------------|
A|----------------|
E|-12\------------|



Email questions or comments to azlizard13@yahoo.com
Please give me credit if you use this tab for a video

Tap to rate this tab
 
# A B C D E F G H I J K L M N O P Q R S T U V W X Y Z