Misc Computer Games - Perfect Dark Zero - Combat Arena tab

Artist: David Clynick

Artist's Myspace: http://www.myspace.com/davidclynick

Album: Perfect Dark Zero
Song: Combat Arena
Tabbed By A Dead Fly

Tabbed for two guitars and one bass all with standard tuning

Guitar One - Distortion
Guitar Two - Clean / Distortion pedal

--------------------------Guitar Parts--------------------------

0:00 - 0:22

Guitar One
                                                                *AH
e|-12--------14---|-15---------18--|-19-------------|--------------------|
B|----------------|----------------|----------------|-----------19b20r19-|
G|----------------|----------------|----------------|--------------------|
D|----------------|----------------|----------------|--------------------|
A|----------------|----------------|----------------|--------19----------|
E|----------------|----------------|----------------|--------------------|

                                                                      *AH
e|-19---17-15-17-----14-|--15--------11--|-12-------------|-----------14b15r14-|
B|----------------------|----------------|----------------|--------------------|
G|----------------------|----------------|----------------|--------------------|
D|----------------------|----------------|----------------|--------14----------|
A|----------------------|----------------|----------------|--------------------|
E|----------------------|----------------|----------------|--------------------|

Guitar Two (clean) Listen closely to the song for weird rythym

e|-----------------------------|-----------------------------|
B|-----------------------------|--------10h11------11-11-11\-|
G|-11h12---12\---9-x-9--11--12-|-----------------------------|
D|-----------------------------|-8--8-x----------------------|
A|-----------------------------|-----------------------------|
E|-----------------------------|-----------------------------|

                                    PM
e|------------------------7-|-x-x---------x-x------|
B|-x----4h5---------5-5-----|-----5-5\--x----------|
G|----------------------4---|----------------------|    Play all 4 of these bars
D|----6------x--6-x---------|----------------------|    twice
A|--------------------------|----------------------|
E|--------------------------|----------------------|

0:22 - 0:53

Guitar One

    *AH(8va)
e|--14v-----------|-14---------12--|----------------|----------------|
B|----------------|--------15------|-14-------------|-10-------(10)\-|
G|------------11--|----------------|----------------|----------------|
D|----------------|----------------|----------------|----------------|
A|----------------|----------------|----------------|----------------|
E|----------------|----------------|----------------|----------------|

e|----------------|-14---------12--|----------------|----------------|
B|------------11--|--------15------|-14-------------|-15-------------|
G|----------------|----------------|----------------|----------------|
D|----------------|----------------|----------------|----------------|
A|----------------|----------------|----------------|----------------|
E|----------------|----------------|----------------|----------------|
   
   *AH(15va)
e|-14-------------|----------------|
B|----------------|----------------|
G|----------------|----------------| Let the final note ring 2 bars or so
D|----------------|----------------| then rest until next part
A|----------------|----------------|
E|----------------|----------------|

Guitar two (distorted)

e|----------------|----------------|
B|----------------|----------------|
G|----------------|-7--7-------x-x-| Play this 4 times then wait until next
D|-4--4-------x-x-|-7--7-------x-x-| part
A|-4--4-------x-x-|-5--5-------x-x-|
E|-2--2-------x-x-|----------------|

0:53 - 1:15

Guitar One

         *AH
e|----------------|----------------|
B|-------19b20r19-|----------------|
G|----------------|----------------| Play this at 1:03 and at 1:14, but don't
D|----------------|----------------| include the last 19\ on the second time
A|----19----------|-19\------------|
E|----------------|----------------|

Guitar Two (clean) just a repeat of earlier:

e|-----------------------------|-----------------------------|
B|-----------------------------|--------10h11------11-11-11\-|
G|-11h12---12\---9-x-9--11--12-|-----------------------------|
D|-----------------------------|-8--8-x----------------------|
A|-----------------------------|-----------------------------|
E|-----------------------------|-----------------------------|

                                    PM
e|------------------------7-|-x-x---------x-x------|
B|-x----4h5---------5-5-----|-----5-5\--x----------|
G|----------------------4---|----------------------|    Play all 4 of these bars
D|----6------x--6-x---------|----------------------|    twice
A|--------------------------|----------------------|
E|--------------------------|----------------------|

Ending:

Either start the song over and fade out like it does in the song or end on E:

Both Guitars:

e|-0--------------|
B|----------------|
G|----------------|
D|----------------|
A|----------------|
E|----------------|


 

------------------------------------Bass Part-----------------------------------

G|----------------|-----3v----3-1--|----------------|-----3\--x------|
D|-----2v------0-2|---------------3|-2---2v------0-2|----------------|
A|----------------|-1-1------------|----------------|-1-1------------|
E|---0-----x-0----|---------x------|---0-----x-0----|----------------|

G|----------------|-----3v----3-1--|----------------|-----3\---------|
D|-----2v------0-2|---------------3|-2---2v------0-2|----------------|
A|----------------|-1-1------------|----------------|-1-1------------|
E|-0-0-----x-0----|---------x------|---0-----x-0----|----------------|

G|----------------|----------------|----------------|----------------|
D|------------4---|-0-0------------|------------4---|-0-0------------|
A|----------------|--------4h5-4-0-|----------------|----------------|
E|-2-2------2---2-|----------------|-2-2------2---2-|------------x-x-|

G|----------------|----------------|----------------|----------------|
D|------------4---|-0-0------------|------------4---|-0-0------------|
A|----------------|--------4h5-4-0-|----------------|--------4h5-4-0-|
E|-2-2------2---2-|----------------|-2-2------2---2-|----------------|

G|----------------|----------------|----------------|----------------|
D|----------------|----------------|----------------|----------------|
A|----------------|----------------|----------------|----------------|
E|-2-2------------|----------------|----------------|----------------|

G|----------------|-----3v----3-1--|----------------|-3-3-3\---------|
D|-----2v------0-2|---------------3|-2---2v------0-2|----------------|
A|----------------|-1-1------------|----------------|----------------|
E|-0-0-----x-0----|---------x------|---0-----x-0----|----------------|

G|----------------|-----3v----3-1--|----------------|-3-3-3\---------|
D|-----2v------0-2|---------------3|-2---2v------0-2|----------------|
A|----------------|-1-1------------|----------------|----------------|
E|-0-0-----x-0----|---------x------|---0-----x-0----|----------------|

Then either start the song over and fade out or end on E:

G|----------------|
D|----------------|
A|----------------|
E|-0--------------|




Email questions or comments to azlizard13@yahoo.com
Please give me credit if you use this tab for a video
Tap to rate this tab
 
# A B C D E F G H I J K L M N O P Q R S T U V W X Y Z