Misc Computer Games - Super Mario Brothers Theme tab

Super Mario Bros Theme
By: alvinhorafael@hotmail.com

                           cano
                          /    \
                         /      \
e|-12-12-12-8-12-15-|---------5/9-|
B|--7--7--7-7--7-12-|-----5/9-----|
G|------------------|-5/9---------|
D|------------------|-------------|
A|------------------|-------------|
E|------------------|-------------|

e|-8-5-5--5-7-6-5----12-15-17-13-15-12-8-10-7-|
B|-5-8-5--6-8-7-6-8-------------------------8-|
G|-5-5-5--5-7-6-5-9-------------------------7-| 2x
D|--------------------------------------------|
A|--------------------------------------------|
E|--------------------------------------------|
                                                             G#   A#  C
e|---------------------------------8-88-----------------------4---6---3-|
B|-8-7-6-0-1-------------8-7-6-0-1-8-88-8-7-6-0-1-------------4---6---3-|
G|-9-8-7-0-0-0-2-5-2-5-7-9-8-7-0-0------9-8-7-0-0-0-2-5-2-5-7-5---7---5-|
D|------------------------------------------------------------6---8---5-|
A|------------------------------------------------------------6---8---3-|
E|------------------------------------------------------------4---6---3-|
     G#                 G#       C     G#                 E   C  E G
e|---------0------------------0-0-0----------0------------------------|
B|-----------1------------------1-1------------1----------------------|
G|-5-5-5-7-----0h2p0--5-5-5-7---0-0--5-5-5-7-----0h2p0--9-9-9----9-12-|
D|-6-6-6--------------6-6-6-----2-2--6-6-6--------------9-9-9-10-9-12-|
A|-6-6-6--------------6-6-6-----3-3--6-6-6--------------7-7-7-10-7-10-|
E|-4-4-4--------------4-4-4----------4-4-4---------------------8------|

End:
               F                                       F                  C
e|-0---------1-1-1----5-5-5-3-1-3-0--------0---------1-1-1----1-1-1-0-------0~~-|
B|---1-------1-1-1--0~~----------------------1-------1-1-1--0---------3----1~~~-|
G|-----0-1-2-2-2-2------------------0h2p0------0-1-2-2-2-2----------------0~~~~-|
D|-----------3-3-3-----------------------------------3-3-3---------------2~~~~~-|
A|-----------3-3-3-----------------------------------3-3-3--------------3~~~~~~-|
E|-----------1-1-1-----------------------------------1-1-1----------------------|
Tap to rate this tab
 
# A B C D E F G H I J K L M N O P Q R S T U V W X Y Z