Song name
# A B C D E F G H I J K L M N O P Q R S T U V W X Y Z

Misc Computer Games - Morrowind Theme tab

Morrowind theme   (tabbed by: Roardo1)


(play it slowly)

        C          Am           D          Am
        
e|------0-----------0-----------2-----------0-------|
B|------1-----------1-----------3-----------1-------|
G|------0-----------2--------0--2-----------2-------|
D|------2--------0--2------2----0-----------2-------|
A|-0-2--3------3----0------------------3-2--0-------|
E|--------------------------------------------------|


        C          Am           D   G   D

e|------0-----------0-----------2---3---2-----------|
B|------1-----------1-----------3---0---3-----------|
G|------0-----------2--------0--2---0---2-----------|
D|------2--------0--2------2----0---0---0-----------|
A|-0-2--3------3----0---------------2---------------|
E|----------------------------------3---------------|


        F           C           D           D

e|------1-----------0-----------2-----------2-------|
B|---0--1------0----1-----------3-----------3-------|
G|-2----2--------2--0-----------2-----------2-------|
D|------3-----------2------3-2--0--------2--0-------|
A|------------------3------------------3------------|
E|--------------------------------------------------|



       Am
e|------0-------------------------------------------|
B|------1-------------------------------------------|
G|------2-------------------------------------------|
D|------2-------------------------------------------|
A|-3-2--0-------------------------------------------|
E|--------------------------------------------------|



all credit goes to my friend who played this for me.

anything absolutely wrong? post comment
Tap to rate this tab
 
# A B C D E F G H I J K L M N O P Q R S T U V W X Y Z