Misc Computer Games - Xenogears - Awakening tab

-------------------------------------------------------------------------------
                        Awakening - Xenogears
-------------------------------------------------------------------------------
The timing is from http://www.youtube.com/watch?v=Sp4mzqgUYQI
Tuning : EADGBE
0:00 - 0:13
e|0-2-3-5-7-9-11-12--0-2-3-5-7-9-11-12--0-2-3-5-7-9-11-12--0-2-3-5-7-9-11-12-|
B|---------------------------------------------------------------------------|
G|---------------------------------------------------------------------------|
D|---------------------------------------------------------------------------|
A|---------------------------------------------------------------------------|
E|---------------------------------------------------------------------------|
0:13 - 0:46
e|-0----0----0------10-----9-----8-----7-----10-----9-----8-----7-----7-----7|
B|---------------------------------------------------------------------------|
G|---------------------------------------------------------------------------|
D|---------------------------------------------------------------------------|
A|---------------------------------------------------------------------------|
E|---------------------------------------------------------------------------|
0:46 - 1:00
e|-0-0-3-2-5-3-8-7-6-0-0-3-2-5------0-0-3-2-5-3-8-7-6-0-0-3-2-5--------------|
B|-----------------------------3-3------------------------------3-3----------|
G|---------------------------------------------------------------------------|
D|---------------------------------------------------------------------------|
A|---------------------------------------------------------------------------|
E|---------------------------------------------------------------------------|
1:00 - 1:12
e|-0-0-3-2-5-3-8-7-6-0-0-3-2-5------0-0-3-2-5-3-8-7-6-0-0-3-2-5--------------|
B|-----------------------------3-3------------------------------3-3----------|
G|---------------------------------------------------------------------------|
D|---------------------------------------------------------------------------|
A|---------------------------------------------------------------------------|
E|---------------------------------------------------------------------------|
1:12 - 1:31
e|-2--0--0-2-3-5--7--3--5----2--0--0-----3--2---2--0--0--2-3-5--7--3--5---2--|
B|------------------------------------3--------------------------------------|
G|---------------------------------------------------------------------------|
D|---------------------------------------------------------------------------|
A|---------------------------------------------------------------------------|
E|---------------------------------------------------------------------------|
1:31 - 1:47
e|0--0-----3--2--------------------------------------------------------------|
B|------3--------------------------------------------------------------------|
G|---------------------------------------------------------------------------|
D|---------------------------------------------------------------------------|
A|---------------------------------------------------------------------------|
E|---------------------------------------------------------------------------|
1:47 - 2:08
e|0--3--2--5--7-8-7----6------2----5-----------------------------------------|
B|-------------------------------------4----5--------------------------------|
G|---------------------------------------------------------------------------|
D|---------------------------------------------------------------------------|
A|---------------------------------------------------------------------------|
E|---------------------------------------------------------------------------|
After 2:08 it loops back to 0:13.
Tap to rate this tab
 
# A B C D E F G H I J K L M N O P Q R S T U V W X Y Z