Misc Computer Games - Legend Of Zelda - Ocarina Of Time - Enter Ganondorf tab

-------------------------------------------------------------------------------
             Enter Ganondorf - The Legend of Zelda - Ocarina of Time
-------------------------------------------------------------------------------
Tabbed by: xHavexHeartx
Email: victorxremembersxthexstars@yahoo.com

Tuning: Standard

This song plays whenever you encounter Ganondorf.

e|---------------------------------------------------------------------------|
B|---------------------------------------------------------------------------|
G|------------------------------7------6-------------------------------------|
D|---------9--------------9-7-9----------------------------------------------|
A|-----8h9------------8h9----------------------------------------------------|
E|---7--------------7--------------------------------------------------------|
Tap to rate this tab
 
# A B C D E F G H I J K L M N O P Q R S T U V W X Y Z