Song name
# A B C D E F G H I J K L M N O P Q R S T U V W X Y Z

Misc Computer Games - Legend Of Zelda - Ocarina Of Time - Deku Tree tab

This is the song that plays when the Great Deku Tree is talking to you in the beginning of the 
game.



-------------------------------------------------------------------------------
		 Deku Tree - The Legend of Zelda: Ocarina of Time
-------------------------------------------------------------------------------
Tabbed by: xHavexHeartx
Email:victorxremembersxthexstars@yahoo.com

Tuning: Standard

e|---------------------------------------------------------------------------|
B|---------------------------------------------------------------------------|
G|------------------------------------3--0-----------------------------------|
D|----------3--2----------------3--2--------------3--2--3--2-----------------|
A|----3--4--------3-------3--4--------------------------------3--------------|
E|---------------------------------------------------------------------------|

e|---------------------------------------------------------------------------|
B|-The next two parts-----------------------------------2--1-----------------|
G|-overlap eachother-----THIS:-----3--1--3--------1--3-----------------------|
D|-so you can play-----------------------------------------------------------|
A|----either one-------------------------------------------------------------|
E|---------------------------------------------------------------------------|
                                        OR
e|---------------------------------------------------------------------------|
B|---------------------------------------------------------------------------|
G|--------------------------------------------------3--6--5------------------|
D|-----------------------------------------3--4--6---------------------------|
A|--------------------------------3--4--6------------------------------------|
E|---------------------------------------------------------------------------|

Throughout the entire song there's a bass line that goes:

e|-----------------------------------------------------------------------------|
B|-----------------------------------------------------------------------------|
G|-----------------------------------------------------------------------------|
D|-----------------------------------------------------------------------------|
A|-----------------------------------------------------------------------------|
E|---8---------------9-----------------8-----------------9---------------------|
Tap to rate this tab
 
# A B C D E F G H I J K L M N O P Q R S T U V W X Y Z