Misc Computer Games - American Mcgees Alice - Time To Die tab

Time to Die by Chris Vrenna from American McGee's Alice.

let ring the last note of each bar

e|---------7----7-8-10------------|
b|-8--8-10---8--------------------|
G|--------------------------------|
D|--------------------------------|
A|--------------------------------|
E|--------------------------------|

e|---------7----------------------|
b|-8--8-10---8-10-----------------|
G|--------------------------------|
D|--------------------------------|
A|--------------------------------|
E|--------------------------------|

e|---------7----7-8-10------------|
b|-8--8-10---8--------------------|
G|--------------------------------|
D|--------------------------------|
A|--------------------------------|
E|--------------------------------|

e|-10-7---7----8------------------|
b|-------8--10--------------------|
G|--------------------------------|
D|--------------------------------|
A|--------------------------------|
E|--------------------------------|
Tap to rate this tab
 
# A B C D E F G H I J K L M N O P Q R S T U V W X Y Z