Song name
# A B C D E F G H I J K L M N O P Q R S T U V W X Y Z

Misc Computer Games - Portal - Turret Opera Cara Mia tab

-----------------------------------------------------------------------------
	                      Cara Mia (Turret Opera) - Portal
-----------------------------------------------------------------------------
Tabbed by: CarthageForever
Email: CarthageForever@yahoo.com

Tuning: Standard

e|--------------------------------------------------------------------------|
B|--------------------------------------------------------------------------|
G|-------------7-----------------7---------------7--------------------------|
D|--7-8-10-8-7---10-8-7--8-10------10-8-10--8-10---10-8-8-8-10-8-7-8-10-----|
A|--------------------------------------------------------------------------|
E|--------------------------------------------------------------------------|

e|--------------------------------------------------------------------------|
B|--------------------------------------------------------------------------|
G|8-7--7------------7------------------10-8-7---------7-7----8-8-7----7-----|
D|---10--10-8-10-10---10-8-10-10-8-7-8--------10-8-10-----10-------10---10-8|
A|--------------------------------------------------------------------------|
E|--------------------------------------------------------------------------|

e|--------------------------------------------------------------------------|
B|--------------------------------------------------------------------------|
G|------7---------7-8-8-7------------------------7---------------------7----|
D|-8-10---10-8-10---------10-8-10-10---8-7-8--10---10-8-10-8-7-8--8-10--10--|
A|--------------------------------------------------------------------------|
E|--------------------------------------------------------------------------|

e|-------------------|
B|-------------------|
G|-8-8-7---------7---|
D|-------10-8-10-----|
A|-------------------|
E|-------------------|
************************************

| /   slide up
| \   slide down
| h   hammer-on
| p   pull-off
| ~   vibrato
| +   harmonic
| x   Mute note
| b   Bend
| pb  Pre-bend
| br  Bend release
| pbr Pre-bend release
| brb Bend release bend

************************************
Tap to rate this tab
 
# A B C D E F G H I J K L M N O P Q R S T U V W X Y Z