Song name
# A B C D E F G H I J K L M N O P Q R S T U V W X Y Z

Misc Computer Games - Super Mario Brothers Theme tab

         Intro                                  x2
e|-12-12-12----12-15---------|--8-----5-7-6-5----0-3-5--1-3-0--------|
B|----------13---------------|----8-5----------0--------------1-3-0--|
G|-------------------12------|---------------------------------------|
D|---------------------------|---------------------------------------|
A|---------------------------|---------------------------------------|
E|---------------------------|---------------------------------------|

e|---3-2-1---0----------------------3-2-1----0------8-8-8------------|
B|---------4----------1----1-3-------------4--------6-6-6------------|
G|-----------------2-----2-------------------------------------------|
D|--------------3----------------------------------------------------|
A|-3-----------------------------3-------------------------5---------|
E|-----------------------------------------------------------3-------|

e|-3-2-1---0---------------------------------------------------------|
B|-------4-----------1-----1-3---4-3-1-------------------------------|
G|----------------2-----2--------------------------------------------|
D|-------------3-----------------------------------------------------|
A|-------------------------------------------3-----------------------|
E|---------------------------------------3-3-------------------------|

e|-------------0---------------------0---------------------0--------|
B|-1-1-1--1-3----1-------1-1-1--1-3-------------1-1-1--1-3---1------|
G|------------------2-0-----------------------------------------2-0-|
D|------------------------------------------------------------------|
A|----------------------------------------5-------------------------|
E|--------------------------------------3---3-----------------------|

e|-12-12-12----12-15-------|-0---------1-1------5-5-5-3-1-0---------|
B|----------13-------------|---1----------------------------1-------|
G|-------------------12----|-----0-1-2-----2--2---------------2-0---|
D|-------------------------|----------------------------------------|
A|-------------------------|----------------------------------------|
E|-------------------------|----------------------------------------|

e|-0---------1-1------1-1-1-0---0--------|
B|---1------------------------3---1------|
G|-----0-1-2-----2--2---------------2-0--|
D|---------------------------------------|
A|---------------------------------------|
E|---------------------------------------|
             HURRY UP MARIO!!
e|---10-10-10---11-11-11----12-12-12----13-13--|-12-12-12----12-15----|
B|-8----------9----------10----------11--------|----------13----------|
G|---------------------------------------------|-------------------12-|
D|---------------------------------------------|----------------------|
A|---------------------------------------------|----------------------|
E|---------------------------------------------|----------------------|

e|-0---------1-1------5-5-5-3-1-0---------|
B|---1----------------------------1-------|
G|-----0-1-2-----2--2---------------2-0---|
D|----------------------------------------|
A|----------------------------------------|
E|----------------------------------------|

e|-0---------1-1------1-1-1-0---0--------|
B|---1------------------------3---1------|
G|-----0-1-2-----2--2---------------2-0--|
D|---------------------------------------|
A|---------------------------------------|
E|---------------------------------------|

This is my first tab, so please...NO HATERZZ!!
Tap to rate this tab
 
# A B C D E F G H I J K L M N O P Q R S T U V W X Y Z