Misc Computer Games - V-rally 2 Track 3 Rhapsody tab

V-Rally Championship Edition 2
Track 3 - RHAPSODY
Guitar Tab
Standard Tuning - EADGBE
Tabbed By Jonathan Mack


This Is Music Track 3 From The Playstation Game V-Rally 2.

. Palm Mute
x Mute String (Dead Note)
v Vibrato
R Hold Note/Ring Out
/ Slide Up
+ Natural Harmonic
t Tremelo



Intro


Rhythm Guitar
0:06
|------------|---------|---------|---------------------------|
|------------|---------|---------|---------------------------|
|------------|---------|---------|---------------------------|
|xx-------3--|----5----|------3--|-----xxxx-xx-----xxxx-xx-xx| x1
|xx-5-4-2-1--|5-4---2--|5-4-2-1--|5-4--xxxx-xx-5-4-xxxx-xx-xx|
|xx-3-2-0----|3-2---0--|3-2-0----|3-2--xxxx-xx-3-2-xxxx-xx-xx|
                  +


Chorus One


Rhythm Guitar
0:18
|------------------|------------------|
|------------------|------------------|
|------------------|------------------|
|------------------|------------------| x4
|22-222----------1v|22-222-0-3-2v-----|
|00-000-0-0-3v-0---|00-000--------3v-0|
        .

Lead Guitar
0:36
|-----------|
|7v-8v-6v-7v|
|-----------|
|-----------| x2
|-----------|
|-----------|

0:45
|-----------13-12R--|
|12R--13R-----------|
|-------------------|
|-------------------| x1
|-------------------|
|-------------------|



Pre Verse


Rhythm Guitar
0:54
|--------------|------------------|
|--------------|------5-----------|
|--------------|----------5-------|
|--3/4---55-3/4|--3/4---5---55-3/4| x1
|3-1/2-5-33-1/2|3-1/2-------33-1/2|
|1-------------|1-----------------|
       +              + + +



Verse One


Rhythm Guitar
1:03
|----------------------|----------------------|
|----------------------|----------------------|
|---3-2----3-2---------|---3-2----3-2---------|
|---------------------3|----------------------| x2
|22-----22-----222222-1|22-----22-----222222-3|
|00-----00-----000000--|00-----00-----000000-1|
 ..     ..     ......   ..     ..     ......


Lead Guitar
1:03
|-----------|
|7v-8v-6v-7v|
|-----------|
|-----------| x2
|-----------|
|-----------|



Break Down


Bass Guitar
1:12
|-----------------|------------------|
|-----------------|------------------|
|-----------------|------------------|
|-----------------|------------------| x1
|-----------------|------------------|
|000-000-0-0-3-0-6|0-00-000-0-8-7-3-0|

1:21
|----------------|------------------|
|----------------|------------------|
|----------------|------------------|
|----------------|------------------| x1
|----------------|------------------|
|00-000-0-0-3-0-6|0-00-000-0-8-7-3-0|



Lead Guitar
1:12
|-----------13-12R--|
|12R--13R-----------|
|-------------------|
|-------------------| x2
|-------------------|
|-------------------|



Chorus Two


Rhythm Guitar
1:30
|------------------|------------------|
|------------------|------------------|
|------------------|------------------|
|------------------|------------------| x4
|22-222----------1v|22-222-0-3-2v-----|
|00-000-0-0-3v-0---|00-000--------3v-0|
        .


Lead Guitar
1:48
|-----------|
|7v-8v-6v-7v|
|-----------|
|-----------| x2
|-----------|
|-----------|

1:57
|-----------13-12R--|
|12R--13R-----------|
|-------------------|
|-------------------| x1
|-------------------|
|-------------------|



Pre Verse


Rhythm Guitar
2:06
|--------------|------------------|
|--------------|------5-----------|
|--------------|----------5-------|
|--3/4---55-3/4|--3/4---5---55-3/4| x1
|3-1/2-5-33-1/2|3-1/2-------33-1/2|
|1-------------|1-----------------|
       +              + + +



Verse Two


Rhythm Guitar
2:15
|----------------------|----------------------|
|----------------------|----------------------|
|---3-2----3-2---------|---3-2----3-2---------|
|---------------------3|----------------------| x1
|22-----22-----222222-1|22-----22-----222222-3|
|00-----00-----000000--|00-----00-----000000-1|
 ..     ..     ......   ..     ..     ......


Lead Guitar
2:15
|-----------|
|7v-8v-6v-7v|
|-----------|
|-----------| x2
|-----------|
|-----------|



Chorus Three


Both Guitars
2:24
|------------------|------------------|
|------------------|------------------|
|------------------|------------------|
|------------------|------------------| x2
|22-222----------1v|22-222-0-3-2v-----|
|00-000-0-0-3v-0---|00-000--------3v-0|
        .



Outro


Rhythm Guitar
2:42
|------------------|-------------|
|------------------|-------------|
|------------------|-------------|
|------------------|-------------| x1
|222--222----------|222--222-----|
|000--000----------|000--000----0|
                                .

2:51                         tt
|-------------------|--------------------------------------|
|-------------------|--------------------------------------|
|-------------------|--------------------------------------|
|-------------------|--------------------------------------| x1
|222-222----------1v|222-222----3-2v-----------------------|
|000-000-0-0-3v-0---|000-000-00-------3v-0R----------------|
         .                   ..

Lead Guitar
2:42
|-----------13-12R--|
|12R--13R-----------|
|-------------------|
|-------------------| x1
|-------------------|
|-------------------|
Tap to rate this tab
 
# A B C D E F G H I J K L M N O P Q R S T U V W X Y Z