Misc Computer Games - Legend Of Zelda - Opening Theme tab

     -------------------------------------------------------------------------------
			                    The Legend of Zelda theme - Misc. Compuuter games
     -------------------------------------------------------------------------------
Tabbed by zzxx196
Email nateredsoxrule@gmail.com

Tuning: standard

e|--6------6--4-2-4---------6-----6--3-5-3-----------------------------------|
B|----6-6---------------------7-7--------------------------------------------|
G|---------------------------------------------------------------------------|   X2
D|---------------------------------------------------------------------------|
A|---------------------------------------------------------------------------|
E|---------------------------------------------------------------------------|

e|----6--6-6-6-6-6-4-6---6-6-6-6-6-4-6---6-6-6-6-6-------------------------6-|
B|-------------------------------------------------6-6-6--6-6-6--6-6-6--6----|
G|---------------------------------------------------------------------------|
D|---------------------------------------------------------------------------|
A|---------------------------------------------------------------------------|
E|---------------------------------------------------------------------------|
*****
e|--6-8-9-11-13--13-14-16-18--18-18-18-18-14-13--10-11-12-14--13-11-9-10-11--|
B|6--------------------------------------------------------------------------|
G|---------------------------------------------------------------------------|
D|---------------------------------------------------------------------------|
A|---------------------------------------------------------------------------|
E|---------------------------------------------------------------------------|

e|13---11-9-8-9-10-12--15-13------------------------6----6-8-9-11-13--13-14--|
B|----------------------------6-6-6--6-6-6--6-6-6-6---6----------------------|
G|---------------------------------------------------------------------------|
D|---------------------------------------------------------------------------|
A|---------------------------------------------------------------------------|
E|---------------------------------------------------------------------------|

e|-16-18---21-20-17--13-14--18-17-13---13-14---18-17-13---10-11-----14-13-9--|
B|---------------------------------------------------------------------------|
G|---------------------------------------------------------------------------|
D|---------------------------------------------------------------------------|
A|---------------------------------------------------------------------------|
E|---------------------------------------------------------------------------|

e|-6-8-10-11-12---15-13------------------------------------------------------|
B|-----------------------6-6-6--6-6-6--6-6-6-6-------------------------------|
G|---------------------------------------------------------------------------|
D|---------------------------------------------------------------------------|
A|---------------------------------------------------------------------------|
E|---------------------------------------------------------------------------|
All that from the ***** x2 then

e|-----6---------------------------------------------------------------------|
B|---------------------------------------------------------------------------|
G|-------3-3--3-3-3-(let last note ring)-------------------------------------|
D|---------------------------------------------------------------------------|
A|---------------------------------------------------------------------------|
E|---------------------------------------------------------------------------|
Tap to rate this tab
 
# A B C D E F G H I J K L M N O P Q R S T U V W X Y Z