Song name
# A B C D E F G H I J K L M N O P Q R S T U V W X Y Z

Misc Computer Games - Nyan Cat Theme tab

Nyan Nyan Cat Theme
Tab by Soulgrasper


===========Part 1=================

E---4-----------------|----------------4--------------|
B-7-----4-------------|------------4-7---4-7---4------|
G-----7---4-7-6-4-4-6-|-7-7-6-4--6----------6----4-6-4|
D---------------------|-------------------------------|
A---------------------|-------------------------------|
E---------------------|-------------------------------|

E------4-----------------------|-------------------------|
B-4--7---4-7---4-----4---------|--------4-7---4----------|
G------------6---4-6---6-4-4-6-|-7-4--6-----6--6-4-6-4-6-|
D------------------------------|-------------------------|
A------------------------------|-------------------------|
E------------------------------|-------------------------|


E---4-----------------|----------------4--------------|
B-7-----4-------------|------------4-7---4-7---4------|
G-----7---4-7-6-4-4-6-|-7-7-6-4--6----------6----4-6-4|
D---------------------|-------------------------------|
A---------------------|-------------------------------|
E---------------------|-------------------------------|

E------4-----------------------|-------------------------|
B-4--7---4-7---4-----4---------|--------4-7---4----------|
G------------6---4-6---6-4-4-6-|-7-4--6-----6--6-4-6-4-4-|
D------------------------------|-------------------------|
A------------------------------|-------------------------|
E------------------------------|-------------------------|

===========Part 2=================


E-----------------------------|-----------------------------|
B-----------------4---5-4-5-7-|-------------5-4-------------|
G-4-----4-----4-6---4---------|-4-4-----4-------6-4---------|
D---4-6---4-6-----------------|-----4-6---4---------4-----4-|
A-----------------------------|-----------------------6-7---|
E-----------------------------|-----------------------------|

E-----------------------------|---------------------------|
B-------------------4---------|---------------5-4-5-7-----|
G-4-----4-----4-4-6---4-------|-4-4-3-4---------------4-3-|
D---4-6---4-6-----------4-6-4-|---------4-6-4-------------|
A-----------------------------|---------------------------|
E-----------------------------|---------------------------|

E-----------------------------|-----------------------------|
B-----------------4---5-4-5-7-|-------------5-4-------------|
G-4-----4-----4-6---4---------|-4-4-----4-------6-4---------|
D---4-6---4-6-----------------|-----4-6---4---------4-----4-|
A-----------------------------|-----------------------6-7---|
E-----------------------------|-----------------------------|

E-----------------------------|---------------------------|
B-------------------4---------|---------------5-4-5-7-----|
G-4-----4-----4-4-6---4-------|-4-4-3-4---------------4-6-|
D---4-6---4-6-----------4-6-4-|---------4-6-4-------------|
A-----------------------------|---------------------------|
E-----------------------------|---------------------------|


===========Repeat All=================
Tap to rate this tab
 
# A B C D E F G H I J K L M N O P Q R S T U V W X Y Z