Song name
# A B C D E F G H I J K L M N O P Q R S T U V W X Y Z

Misc Computer Games - Okami - Wakas Theme tab

-------------------------------------------------------------------------------
			     Waka's Theme- From Okami
-------------------------------------------------------------------------------
Tabbed by: Emilym80
Email: Emilym80@hotmail.com
From the official Okami game soundtrack, composed by Masami Ueda,
Hiroshi Yamaguchi, Rei Kondo and Akari Grooves (?)

Tuning: Standard
Intro- Slower, almost rit, about 122bpm.
e|---------------------------------------------------------------------------|
B|---------------------------------------------------------------------------|
G|-------------------------15-14---------------------------------------------|
D|--------------------------------17-------------15-----15-------------------|
A|-------13-15--17-15-17-------------17---15-17------17----17----------------|
E|---15----------------------------------------------------------------------|
Main theme- Faster, about 130-140 bpm
e|---------------------------------------------------------------------------|
B|---------------------------------------------------------------------------|
G|----------------------15-14------------------------------------------------|
D|-----------------------------17------------15----15------------------------|
A|-----13-15-17--15-17------------17---15-17----17----17--13--12-13-15-------|
E|--15-----------------------------------------------------------------------|

e|---------------------------------------------------------------------------|
B|---------------------------------------------------------------------------|
G|------------------15-14-15--17-15-14h15p14--------------15-----------------|
D|-------------------------------------------15----15-17------17-------------|
A|--13-15-17--15-17-----------------------------17---------------------------|
E|---------------------------------------------------------------------------|

e|---------------------------------------------------------------------------|
B|---------------------------------------------------------------------------|
G|---------------15-14-------------------------------------------------------|
D|----------------------17-----------15----15--------------------------------|
A|--15--17-15-17-----------17--15-17----17----17--13--12-13-15--13-15-17-15--|
E|---------------------------------------------------------------------------|

e|---------------------------------------------------------------------------|
B|---------------------------------------------------------------------------|
G|-----15-14-15--17-15-14h15p14----------------19----------------------------|
D|-------------------------------15-----15-17------17------------------------|
A|--17------------------------------17---------------------------------------|
E|---------------------------------------------------------------------------|

e|---------------------------------------------------------------------------|
B|---------------------------------------------------------------------------|
G|---------------------------------------------------------------------------|
D|---------------------------------------------------------------------------|
A|-----13-15-----------------------------------------------------------------|
E|--15-------15--------------------------------------------------------------|

And that's it! Play the 14h15p14's on the G string like trills, because on the guitar 
and bass they basically are. Sorry it's on the lower strings, I transcribed it on bass and 
barely play guitar so I just put it up and octave. Enhoy!
Tap to rate this tab
 
# A B C D E F G H I J K L M N O P Q R S T U V W X Y Z