Misc Computer Games - V-rally 2 - Track 5 Rhapsody tab

V-Rally Championship Edition 2
Track 5 - RHAPSODY
Guitar Tab
Drop D Tuning - DADGBE
Tabbed By Jonathan Mack


This Is Music Track 5 From The Playstion Game V-Rally 2.

. Palm Mute
h Hammer On
H Hold Note/Ring Out
f Feedback
t Tremelo


Intro

Rhythm Guitar (Fades In)
0:03
|--------------|----------------->
|--------------|----------------->
|--------------|----------------->
|--------------|-----3----3------>
|---5-3h5-3-3h5|---5---5----3h5-->
|0-------------|0---------------->
 .              .

0:07
|--------------|---------------|
|--------------|---------------|
|--------------|---------------|
|--------------|-----3----3----| x1
|---5-3h5-3-3h5|---5---5----3--|
|0-------------|0--------------|
 .              .

Lead Guitar
0:00          0:04
|13H----------|--------------|
|-------------|14H-----------|
|-------------|--------------|
|-------------|--------------| x1
|-------------|--------------|
|-------------|--------------|
   fffffffffff   ffffffffffff



Verse One


Rhythm Guitar
0:10
|----------------|------------------->
|----------------|------------------->
|----------------|------------------->
|----------------|-------3----3------>
|---5---3h5-3-3h5|---5-----5----3h5-->
|0----0----------|0----0------------->
 .    .           .    .

0:14
|----------------|-----------------|
|----------------|-----------------|
|----------------|-----------------|
|----------------|-------3----3----| x2
|---5---3h5-3-3h5|---5-----5----3--|
|0----0----------|0----0-----------|
 .    .           .    .

Lead Guitar
0:10
|----------------|----------------->
|----------------|----------------->
|----------------|----------------->
|----------------|----------------->
|----------------|----------------->
|----------------|----------------->

0:14
|9---------------|-----------------|
|----------------|-----------------|
|----------------|-----------------|
|----------------|-----------------| x2
|----------------|-----------------|
|----------------|-----------------|



Chorus One


Rhythm Guitar
0:25            0:33      0:36                              0:40
|---------------|---------|---------------------------------|---------------------------------|
|---------------|---------|---------------------------------|---------------------------------|
|----3-2--------|5-3------|---------------------------------|---------------------------------|
|3-2-3-2-3-0H---|5-3-5H---|------------------------3---3----|------------------------3---3----| x1
|3-2-1-0-3-0H---|3-1-5H---|---5---3h5-3-3h5----5-----5---3h5|---5---3h5-3-3h5----5-----5---3--|
|3-2-----3-0H---|----5H---|0----0-----------0----0----------|0----0-----------0----0----------|
                           .    .           .    .           .    .           .    .

0:44            0:51
|---------------|-----------------------------------------------------------------------------|
|---------------|-----------------------------------------------------------------------------|
|----3-2--------|5-3--------------------------------------------------------------------------|
|3-2-3-2-3-0H---|5-3-5H---0H------------------------------------------------------------------| x1
|3-2-1-0-3-0H---|3-1-5H---0H------------------------------------------------------------------|
|3-2-----3-0H---|----5H---0H------------------------------------------------------------------|



Break Down


Bass Guitar
1:02            1:09            1:17            1:24
|---------------|---------------|---------------|---------|
|---------------|---------------|---------------|---------|
|---------------|---------------|---------------|---------|
|---------------|---------------|---------------|---------| x1
|----1-0--------|----1-0--------|----1-0--------|3-1------|
|3-2-----3-0H---|3-2-----3-0H---|3-2-----3-0H---|----5H---|



Lead Guitar
1:20
|13-12H------------|
|---------13-11H---|
|------------------|
|------------------| x1
|------------------|
|------------------|



Verse Two


Bass Guitar
1:27
|----------------|------------------>
|----------------|------------------>
|----------------|------------------>
|----------------|-------3---3------>
|---5---3h5-3-3h5|---5-----5---3h5-->
|0----0----------|0----0------------>
 .  . . . . . . . .  . . . . . . . 

1:31
|----------------|----------------|
|----------------|----------------|
|----------------|----------------|
|----------------|-------3---3----| x3
|---5---3h5-3-3h5|---5-----5---3--|
|0----0----------|0----0----------|
 .  . . . . . . . .  . . . . . .


Rhythm Guitar
1:52
|----------------|------------------->
|----------------|------------------->
|----------------|------------------->
|----------------|-------3----3------>
|---5---3h5-3-3h5|---5-----5----3h5-->
|0----0----------|0----0------------->
 .    .           .    .

1:55                              ttt
|----------------|-------------------|
|----------------|-------------------|
|----------------|-------------------|
|----------------|-------3----3------| x1
|---5---3h5-3-3h5|---5-----5----3----|
|0----0----------|0----0----------000|
 .    .           .    .          ...

1:59
|----------------|------------------->
|----------------|------------------->
|----------------|------------------->
|----------------|-------3----3------>
|---5---3h5-3-3h5|---5-----5----3h5-->
|0----0----------|0----0------------->
 .    .           .    .
  
2:03                            
|----------------|-----------------|
|----------------|-----------------|
|----------------|-----------------|
|----------------|-------3----3----| x1
|---5---3h5-3-3h5|---5-----5----3--|
|0----0----------|0----0-----------|
 .    .           .    .          

2:07
|----------------|------------------->
|----------------|------------------->
|----------------|------------------->
|----------------|-------3----3------>
|---5---3h5-3-3h5|---5-----5----3h5-->
|0----0----------|0----0------------->
 .    .           .    .
   
2:10                              ttt
|----------------|-------------------|
|----------------|-------------------|
|----------------|-------------------|
|----------------|-------3----3------| x1
|---5---3h5-3-3h5|---5-----5----3----|
|0----0----------|0----0----------000|
 .    .           .    .          ...

2:14
|----------------|------------------->
|----------------|------------------->
|----------------|------------------->
|----------------|-------3----3------>
|---5---3h5-3-3h5|---5-----5----3h5-->
|0----0----------|0----0------------->
 .    .           .    .
 
2:18                                 
|----------------|-----------------|
|----------------|-----------------|
|----------------|-----------------|
|----------------|-------3----3----| x1
|---5---3h5-3-3h5|---5-----5----3--|
|0----0----------|0----0-----------|
 .    .           .    .          

Lead Guitar
1:56
|----------------|----------------->
|----------------|----------------->
|----------------|----------------->
|----------------|----------------->
|----------------|----------------->
|----------------|----------------->


|9---------------|-----------------|
|----------------|-----------------|
|----------------|-----------------|
|----------------|-----------------| x4
|----------------|-----------------|
|----------------|-----------------|



Chorus Two


Rhythm Guitar
2:21            2:29      2:32                              2:36
|---------------|---------|---------------------------------|---------------------------------|
|---------------|---------|---------------------------------|---------------------------------|
|----3-2--------|5-3------|---------------------------------|---------------------------------|
|3-2-3-2-3-0H---|5-3-5H---|------------------------3---3----|------------------------3---3----| x1
|3-2-1-0-3-0H---|3-1-5H---|---5---3h5-3-3h5----5-----5---3h5|---5---3h5-3-3h5----5-----5---3--|
|3-2-----3-0H---|----5H---|0----0-----------0----0----------|0----0-----------0----0----------|
                           .    .           .    .           .    .           .    .

2:40            2:47
|---------------|-----------------------------------------------------------------------------|
|---------------|-----------------------------------------------------------------------------|
|----3-2--------|5-3--------------------------------------------------------------------------|
|3-2-3-2-3-0H---|5-3-5H-----------------------------------------------------------------------| x1
|3-2-1-0-3-0H---|3-1-5H-----------------------------------------------------------------------|
|3-2-----3-0H---|----5H-----------------------------------------------------------------------|



Verse Three


Bass Guitar
2:50
|----------------|----------------|
|----------------|----------------|
|----------------|----------------|
|----------------|-------3---3----| x2
|---5---3h5-3-3h5|---5-----5---3h5|
|0----0----------|0----0----------|
 .  . . . . . . . .  . . . . . . . 

2:58
|----------------|----------------|
|----------------|----------------|
|----------------|----------------|
|----------------|-------3---3----| x1
|---5---3h5-3-3h5|---5-----5---3--|
|0----0----------|0----0----------|
 .  . . . . . . . .  . . . . . .

3:02
|----------------|----------------|
|----------------|----------------|
|----------------|----------------|
|----------------|-------3---3----| x2
|---5---3h5-3-3h5|---5-----5---3h5|
|0----0----------|0----0----------|
 .  . . . . . . . .  . . . . . . . 



Rhythm Guitar
2:55
|----------------|----------------|
|----------------|----------------|
|----------------|----------------|
|----------------|-------3---3----| x2
|---5---3h5-3-3h5|---5-----5---3h5|
|0----0----------|0----0----------|
 .    .           .    .     

3:02                             ttt
|----------------|------------------|
|----------------|------------------|
|----------------|------------------|
|----------------|-------3---3------| x1
|---5---3h5-3-3h5|---5-----5---3----|
|0----0----------|0----0---------000|
 .    .           .    .         ...

3:06
|----------------|------------------>
|----------------|------------------>
|----------------|------------------>
|----------------|-------3---3------>
|---5---3h5-3-3h5|---5-----5---3h5-->
|0----0----------|0----0------------>
 .    .           .    .    

3:09                             ttt
|----------------|------------------|
|----------------|------------------|
|----------------|------------------|
|----------------|-------3---3------| x1
|---5---3h5-3-3h5|---5-----5---3----|
|0----0----------|0----0---------000|
 .    .           .    .         ...

3:13
|----------------|------------------>
|----------------|------------------>
|----------------|------------------>
|----------------|-------3---3------>
|---5---3h5-3-3h5|---5-----5---3h5-->
|0----0----------|0----0------------>
 .    .           .    .  

3:17                             ttt
|----------------|------------------|
|----------------|------------------|
|----------------|------------------|
|----------------|-------3---3------| x1
|---5---3h5-3-3h5|---5-----5---3----|
|0----0----------|0----0---------000|
 .    .           .    .         ...

3:20
|----------------|------------------>
|----------------|------------------>
|----------------|------------------>
|----------------|-------3---3------>
|---5---3h5-3-3h5|---5-----5---3h5-->
|0----0----------|0----0------------>
 .    .           .    .   

3:24
|----------------|
|----------------|
|----------------|
|----------------| x1
|---5---3h5-3-3h5|
|0----0----------|
 .    .           


Chorus Three


Rhythm Guitar
3:26            3:33      3:37                              3:41
|---------------|---------|---------------------------------|---------------------------------|
|---------------|---------|---------------------------------|---------------------------------|
|----3-2--------|5-3------|---------------------------------|---------------------------------|
|3-2-3-2-3-0H---|5-3-5H---|------------------------3---3----|------------------------3---3----| x1
|3-2-1-0-3-0H---|3-1-5H---|---5---3h5-3-3h5----5-----5---3h5|---5---3h5-3-3h5----5-----5---3--|
|3-2-----3-0H---|----5H---|0----0-----------0----0----------|0----0-----------0----0----------|
                           .    .           .    .           .    .           .    .

3:44            3:52  3:54
|---------------|-----|----------------|
|---------------|-----|----------------|
|----3-2--------|5-3--|----------------|
|3-2-3-2-3-0H---|5-3-5|----------------| x1
|3-2-1-0-3-0H---|3-1-5|---5---3h5-3-3h5|
|3-2-----3-0H---|----5|0----0----------|



Verse Four


Bass Guitar
3:56                             
|----------------|----------------|----------------|
|----------------|----------------|----------------|
|----------------|----------------|----------------|
|----------------|----------------|-------3---3----| x1
|---5---3h5-3-3h5|---5---3h5-3-3h5|---5-----5---3h5|
|0----0----------|0----0----------|0----0----------|
 .  . . . . . . . .   . . . . . .  .  . . . . . . .

4:01
|----------------|----------------|
|----------------|----------------|
|----------------|----------------|
|----------------|-------3---3----| x2
|---5---3h5-3-3h5|---5-----5---3--|
|0----0----------|0----0----------|
 .  . . . . . . . .  . . . . . .


Rhythm Guitar
3:56
|----------------|----------------|
|----------------|----------------|
|----------------|----------------|
|----------------|----------------| x1
|---5---3h5-3-3h5|----------------|
|0----0----------|----------------|
 .    .                    

                 4:01
|----------------|----------------|----------------|
|----------------|----------------|----------------|
|----------------|----------------|----------------|
|----------------|----------------|-------3---3----| x1
|----------------|---5---3h5-3-3h5|---5-----5---3h5|
|----------------|0----0----------|0----0----------|
                  .    .           .    .    

4:05
|----------------|----------------|
|----------------|----------------|
|----------------|----------------|
|----------------|-------3---3----| x1
|---5---3h5-3-3h5|---5-----5---3h5|
|0----0----------|0----0----------|
 .    .           .    .    

4:08                             tt 4:12
|----------------|-----------------|11----13----11---|
|----------------|-----------------|---12----14----12|
|----------------|-----------------|-----------------|
|----------------|-------3---3-----|-----------------| x1
|---5---3h5-3-3h5|---5-----5---3---|-----------------|
|0----0----------|0----0---------00|-----------------|
 .    .           .    .         ..



Chorus Four/Outro


Guitar Three
4:14            4:21
|---------------|---------|
|---------------|---------|
|----3-2--------|5-3------|
|3-2-3-2-3-0H---|5-3-5H---| x1
|3-2-1-0-3-0H---|3-1-5H---|
|3-2-----3-0H---|----5H---|
          
                 
Rhythm Guitar
4:21
|----------------|----------------|
|----------------|----------------|
|----------------|----------------|
|----------------|-------3---3----| x1
|---5---3h5-3-3h5|---5-----5---3h5|
|0----0----------|0----0----------|
 .    .           .    .    

4:25
|----------------|
|----------------|
|----------------|
|----------------| x1
|---5---3h5-3-3h5|
|0----0----------|
 .    .           
Tap to rate this tab
 
# A B C D E F G H I J K L M N O P Q R S T U V W X Y Z