Misc Computer Games - Call Of Duty - Nacht Der Untoten tab

e--------------------------------------------|
B---1---1------5--5-----5--5------7----7-----|
G-----2----2-----5---5----5---5-----7----7---|
D--------------------------------------------|
A--------------------------------------------|
E--------------------------------------------|

e---------------------------------3----------|
B---1---1-------5--5-----5--5-------0--0-----|
G----2----2------5---5----5---5-----------0--|
D--------------------------------------------|
A--------------------------------------------|
E--------------------------------------------|
Tap to rate this tab
 
# A B C D E F G H I J K L M N O P Q R S T U V W X Y Z