Song name
# A B C D E F G H I J K L M N O P Q R S T U V W X Y Z

Misc Computer Games - Streets Of Rage - Round 3 tab

Streets Of Rage
Round 3
Guitar Tab
Drop C Tuning - CGCFAD
Tabbed By Jonathan Mack


Round 3 For The Sega Megadrive/Genesis Game -
Streets Of Rage.

p Pull Off
H Hold Note/Ring Out
v Vibrato




Intro



Lead Guitar
0:00
|---15-15--------|
|----------------|
|10---------10-12|
|--------12------| x12
|----------------|
|----------------|


Bass Guitar
0:00
|-----------|
|-----------|
|-----------|
|-----------| x12
|-----------|
|5-0-3-3-5-0|


Rhythm Guitar
0:07
|3H------------5------|
|----6H--3H------6-3--|
|---------------------|
|---------------------| x1
|---------------------|
|---------------------|




Chorus One



Lead Guitar
0:22
|------------10v------------------|
|8p6-8-8p6-8-----8p6-8-8p6-8-8-8p6|
|---------------------------------|
|---------------------------------| x7
|---------------------------------|
|---------------------------------|

0:48
|------------10v-------------10-10-8-6--|
|8p6-8-8p6-8-----8p6-8-8p6-8-----------8|
|---------------------------------------|
|---------------------------------------| x1
|---------------------------------------|
|---------------------------------------|


Rhythm Guitar
0:22
|6H--5H--3H----|
|--------------|
|--------------|
|--------------| x4
|--------------|
|--------------|


Bass Guitar
0:22
|-----------|
|-----------|
|-----------|
|-----------| x16
|-----------|
|5-0-3-3-5-0|



Verse One


Lead Guitar
0:52
|6-6-8-6H--5-5-6-5H----------|
|--------------------6-8-----|
|------------------------7H--|
|----------------------------| x1
|----------------------------|
|----------------------------|

0:56                     0:58
|13-13-15-15-13----15--15|13-13-15-15-13----18-18-17-15-17-17-15-13| 
|---------------15-------|---------------15------------------------|
|------------------------|-----------------------------------------|
|------------------------|-----------------------------------------| x1
|------------------------|-----------------------------------------|
|------------------------|-----------------------------------------|

1:00
|6-6-8-6H--5-5-6-5H----------|
|--------------------6-8-----|
|------------------------7H--|
|----------------------------| x1
|----------------------------|
|----------------------------|

1:03                     1:05
|13-13-15-15-13----15--15|13-13-15-15-13----18-18-17-15-15-17-18-20| 
|---------------15-------|---------------15------------------------|
|------------------------|-----------------------------------------|
|------------------------|-----------------------------------------| x1
|------------------------|-----------------------------------------|
|------------------------|-----------------------------------------|


Rhythm Guitar
0:52
|----------------------|
|--------6H------------|
|7H--5H-------7H--5H---|
|----------------------| x2
|----------------------|
|----------------------|


Bass Guitar
0:52
|-----------|
|-----------|
|-----------|
|-----------| x8
|-----------|
|5-0-3-3-5-0|



Pre Chorus



Lead Guitar
1:07                           1:14
|---------------18-17-15------|-------------------------|
|15-18-16-15-16-15HHHHHH-18-13|18-15-18-16-15-16-15---18|
|-----------------------------|-------------------------|
|-----------------------------|-------------------------| x1
|-----------------------------|-------------------------|
|-----------------------------|-------------------------|


Rhythm Guitar
1:08
|15-15-15-15|
|-----------|
|-----------|
|-----------| x8
|-----------|
|-----------|


Bass Guitar
1:07
|-----------|
|-----------|
|-----------|
|-----------| x8
|-----------|
|5-0-3-3-5-0|




Chorus Two



Lead Guitar
1:22
|------------10v------------------|
|8p6-8-8p6-8-----8p6-8-8p6-8-8-8p6|
|---------------------------------|
|---------------------------------| x7
|---------------------------------|
|---------------------------------|

1:48
|------------10v-------------10-10-8-6--|
|8p6-8-8p6-8-----8p6-8-8p6-8-----------8|
|---------------------------------------|
|---------------------------------------| x1
|---------------------------------------|
|---------------------------------------|


Rhythm Guitar
1:22
|6H--5H--3H----|
|--------------|
|--------------|
|--------------| x4
|--------------|
|--------------|


Bass Guitar
1:22
|-----------|
|-----------|
|-----------|
|-----------| x16
|-----------|
|5-0-3-3-5-0|



Verse Two


Lead Guitar
1:52
|6-6-8-6H--5-5-6-5H----------|
|--------------------6-8-----|
|------------------------7H--|
|----------------------------| x1
|----------------------------|
|----------------------------|

1:56                     1:57 
|13-13-15-15-13----15--15|13-13-15-15-13----18-18-17-15-17-17-15-13| 
|---------------15-------|---------------15------------------------|
|------------------------|-----------------------------------------|
|------------------------|-----------------------------------------| x1
|------------------------|-----------------------------------------|
|------------------------|-----------------------------------------|

2:00
|6-6-8-6H--5-5-6-5H----------|
|--------------------6-8-----|
|------------------------7H--|
|----------------------------| x1
|----------------------------|
|----------------------------|

2:03                     2:05 
|13-13-15-15-13----15--15|13-13-15-15-13----18-18-17-15-15-17-18-20| 
|---------------15-------|---------------15------------------------|
|------------------------|-----------------------------------------|
|------------------------|-----------------------------------------| x1
|------------------------|-----------------------------------------|
|------------------------|-----------------------------------------|


Rhythm Guitar
1:52
|----------------------|
|--------6H------------|
|7H--5H-------7H--5H---|
|----------------------| x2
|----------------------|
|----------------------|


Bass Guitar
1:52
|-----------|
|-----------|
|-----------|
|-----------| x8
|-----------|
|5-0-3-3-5-0|


Pre Chorus


Lead Guitar
2:07                           2:14
|---------------18-17-15------|-------------------------|
|15-18-16-15-16-15HHHHHH-18-13|18-15-18-16-15-16-15---18|
|-----------------------------|-------------------------|
|-----------------------------|-------------------------| x1
|-----------------------------|-------------------------|
|-----------------------------|-------------------------|


Rhythm Guitar
2:07
|15-15-15-15|
|-----------|
|-----------|
|-----------| x8
|-----------|
|-----------|


Bass Guitar
2:07
|-----------|
|-----------|
|-----------|
|-----------| x8
|-----------|
|5-0-3-3-5-0|




Break Down


Bass Guitar
2:21
|---------------------|
|---------------------|
|---------------------|
|---------------------| x4
|---------------------|
|5-0-3-5-3-5-0-0-3-3-5|


Rhythm Guitar
2:29   2:29        2:31     2:33        2:35
|13-15-|15-15-15---|15-15---|15-15-15---|15-15---|
|------|-----------|--------|-----------|--------|
|------|-----------|--------|-----------|--------|
|------|-----------|--------|-----------|--------| x1
|------|-----------|--------|-----------|--------|
|------|-----------|--------|-----------|--------|




After The 'Break Down' It Goes Back Into 'Chorus One'.
And Plays Through The Whole Song Again.
You Can Repeat As Many Times As You Like.
Thats The Whole Song!

Tap to rate this tab
 
# A B C D E F G H I J K L M N O P Q R S T U V W X Y Z