Song name
# A B C D E F G H I J K L M N O P Q R S T U V W X Y Z

Misc Computer Games - Legend Of Zelda - Sarias Song Lost Woods tab

Artist: Koji Kondo
Song: Saria's song (Lost Woods)
Game: The Legend Of Zelda
Tuning: Standard (eBGDAE)


(#) = Let note ring
h = Hammer On

e|-----------------0--------------------------------|
B|-----0----0----0---3-(3)-0-1-0--------------------|
G|---2----2----2-----------------0------------0-(0)-|
D|-3----3----3---------------------2-(2)-0-2-(2)-2--|
A|--------------------------------------------------|
E|--------------------------------------------------|


e|-----------------0-----------0---------------------|
B|-----0----0----0---3-(3)-0-1---1-------1-----------|
G|---2----2----2-------------------0-(0)---0---------|
D|-3----3----3-------------------------------0-2-(2)-|
A|---------------------------------------------------|
E|---------------------------------------------------|


e|----------------------------------------------0-(0)-----------------------|
B|------------0--1-0-(0)-----------------0--1-3------------------0--1-0-(0)-|
G|--------0-2------------------------0-2---------------------0-2------------|
D|-0-2-3--------------2-(2)---0-2-3-------------------0-2-3--------------2--|
A|--------------------------------------------------------------------------|
E|--------------------------------------------------------------------------|


e|-----------------------------0h1----0--|
B|-----------------0---1-0-3-1-----3-(3)-|
G|---------0---2-0---2-------------------|
D|-2-0-3-2---3---------------------------|
A|---------------------------------------|
E|---------------------------------------|
Tap to rate this tab
 
# A B C D E F G H I J K L M N O P Q R S T U V W X Y Z