Song name
# A B C D E F G H I J K L M N O P Q R S T U V W X Y Z

Misc Computer Games - The Witcher 2 - The Path Of A Kingslayer tab

-------------------------------------------------------------------------------
		 The Path of a Kingslayer - The Witcher 2
-------------------------------------------------------------------------------
Tabbed by: petzakecske
Email: petzazsoldos@hotmail.com

One of the battle themes from the Witcher 2. This is just the guitar.

Tuning: standard
0:24 ->
e|--------------------------|--------------------------|
B|--------------------------|--------------------------|
G|--------------------------|--------------------------|
D|--5--5--5--5--5--5--6--6--|--5--5--5--5--5--8--8--6--|
A|--5--5--5--5--5--5--6--6--|--5--5--5--5--5--8--8--6--|
E|--3--3--3--3--3--3--4--4--|--3--3--3--3--3--6--6--4--|

e|--------------------------|--------------------------|
B|--------------------------|--------------------------|
G|--------------------------|--------------------------|
D|--5--5--5--5--5--5--6--6--|--8--8--8--8--8--8--6--6--|
A|--5--5--5--5--5--5--6--6--|--8--8--8--8--8--8--6--6--|
E|--3--3--3--3--3--3--4--4--|--6--6--6--6--6--6--4--4--|

0:51 -> play this twice
e|----------------------------|----------------------------|
B|----------------------------|----------------------------|
G|----------------------------|----------------------------|
D|--5----5----5----5----6--6--|--5----5----5----5----8--6--|
A|--5----5----5----5----6--6--|--5----5----5----5----8--6--|
E|--3--3-3--3-3--3-3--3-4--4--|--3--3-3--3-3--3-3--3-6--4--|
       x    x    x    x             x    x    x    x
e|----------------------------|----------------------------|
B|----------------------------|----------------------------|
G|----------------------------|----------------------------|
D|--5----5----5----5----6--6--|--8----8----8----8----6--6--|
A|--5----5----5----5----6--6--|--8----8----8----8----6--6--|
E|--3--3-3--3-3--3-3--3-4--4--|--6--6-6--6-6--6-6--6-4--4--|
       x    x    x    x             x    x    x    x



************************************

| /   slide up
| \   slide down
| h   hammer-on
| p   pull-off
| ~   vibrato
| +   harmonic
| x   Mute note
| b   Bend
| pb  Pre-bend
| br  Bend release
| pbr Pre-bend release
| brb Bend release bend

************************************
Tap to rate this tab
# A B C D E F G H I J K L M N O P Q R S T U V W X Y Z