Song name
# A B C D E F G H I J K L M N O P Q R S T U V W X Y Z

Misc Computer Games - The Fragrance Of Dark Coffee tab

Godots theme: The Fragrance of Dark Coffee
This is the best character theme off any game. Enjoy

Saxaphone part:

e-----2---2----2--0------|
B------------------------|
G-2-4---4----------------|
D------------------------|
A------------------------|
E------------------------|

e----2---2-0-------------|
B--------------3-3-2-3-3-|
G--4---4-----------------|
D------------------------|
A------------------------|
E------------------------|

e-----------0-1-3-5------|
B-------1-3--------------|
G-0-2-3------------------|
D------------------------|
A------------------------|
E------------------------|

e-5-5--2-2----------------0---0-2-------|
B-----------3-3--0-3--0-3---3-----3-3---|
G-------------------------------------2-|
D---------------------------------------|
A---------------------------------------|
E---------------------------------------|

e-------1----0----0---------------------|
B-3-1-3---------3---1-------------------|
G---------------------------------------|
D---------------------------------------|
A---------------------------------------|
E---------------------------------------|

e---8-7--------1-0---0-------------0----|
B------------------3---3--1----0-1---3--|
G-7-------------------------------------|
D---------------------------------------|
A---------------------------------------|
E---------------------------------------|

e------------0------|
B---0-1-0-----------|
G-2---------------2-|
D-------------------|
A-------------------|
E-------------------|
.
Tap to rate this tab
# A B C D E F G H I J K L M N O P Q R S T U V W X Y Z