Song name
# A B C D E F G H I J K L M N O P Q R S T U V W X Y Z

Misc Computer Games - Zelda 64 Song Of Storms tab

I couldn't find any tab with the song after the first part...This sounds best when 
strummed with your thumb instead of with a pick...

e-------------------12--13-12-13-12-------|
B-------15------15------------------13----|
G-----14------14-----------------------14-|
D---12------12----------------------------|
A-----------------------------------------|
E-----------------------------------------|

e-----------------------------------|
B-----------------------------------|
G---14------------------------------|
D------12-15-17-19---19-12-15-17-14-|
A-----------------------------------|
E-----------------------------------|

e-------------------12--13-12-13-12-------|
B-------15------15------------------13----|
G-----14------14-----------------------14-|
D---12------12----------------------------|
A-----------------------------------------|
E-----------------------------------------|

e-------------------------|
B-------------------------|
G---14--------------------|
D------12-15-17-19--19-12-|
A-------------------------|
E-------------------------|
Tap to rate this tab
 
# A B C D E F G H I J K L M N O P Q R S T U V W X Y Z