Song name
# A B C D E F G H I J K L M N O P Q R S T U V W X Y Z

Misc Computer Games - Legend Ofzelda - Overworld tab

Song: Legend of Zelda - Overworld Theme
Tuning: Standard
Transcribed by lazyguy325@yahoo.com


Intro
----------------------------------------------------------
----------------------------------------------------------
---9~~----------9---------------9~~------------9---8p6h8--
----------9--9------12p9h12------------10--10-------------
----------------------------------------------------------
----------------------------------------------------------

Main                                                    x2
----------------------------------------------------------
-------------------9h10-12--------------------------------
--9-------9---9h11----------------------------------------
------9---------------------------------------------------
----------------------------------------------------------
----------------------------------------------------------

---------8-10-12---12-12--10-8-10--8----------------------
--12-12------------------------------12-------------------
----------------------------------------------------------
----------------------------------------------------------
----------------------------------------------------------
----------------------------------------------------------

----------------8-----------------------------------------
--12--10--10-12-----12--10--8--8-10-12--------------------
----------------------------------------------------------
----------------------------------------------------------
----------------------------------------------------------
----------------------------------------------------------

-----------------------9----------------------------------
-10--8---------9-11--------12-----------------------------
--------11--11--------------------------------------------
--------------------------------999-999--99---------------
----------------------------------------------------------
----------------------------------------------------------

----------------------------------------------------------
-------------------9h10-12--------------------------------
--9-------9---9h11----------------------------------------
------9---------------------------------------------------
----------------------------------------------------------
----------------------------------------------------------

---------8-10-12-----15--14--11--------------12--11-------
--12-12----------------------------12--13------------12---
----------------------------------------------------------
----------------------------------------------------------
----------------------------------------------------------
----------------------------------------------------------

------------------------------------------9---------------
-----------13--12-----------------9-11-------12-----------
-13--14------------12----9--11-11-------------------------
------------------------------------------------999-999-99
----------------------------------------------------------
----------------------------------------------------------

repeat
Tap to rate this tab
# A B C D E F G H I J K L M N O P Q R S T U V W X Y Z