Song name
# A B C D E F G H I J K L M N O P Q R S T U V W X Y Z

Misc Computer Games - The Curse Of Monkey Island - Difficulty Screen tab

Difficulty screen - The curse of Monkey Island (monkey island 3)

e|----------------------------------------3--2--------0--------------0----------0----------------|
B|--------3--------4---------5----------------------------3-------------------------------0--0---|
G|----4--------4---------4-----------------------------------------------------------------------|
D|----------------------------------------------------------------------------2------------------|
A|-----------------------------------------------------------------------------------------------|
E|-----------------------------------------------------------------------------------------------|

e|-----------------------------------------------------------------------------------|
B|----3-------3---3--------1----0--------3-------1--------------1----------0---------|
G|-----------------------------------------------------------------------------------|
D|-----------------------------------------------------------0-----------2-----------|
A|-----------------------------------------------------------------------------------|
E|-----------------------------------------------------------------------------------|


e|----------------------------------------------------------------------------|
B|-----------------------------------------------------------------3----------|
G|-------------------0-----0---0-----4p2--------------------------------------|
D|----------4---------------------------------------------2-----------4-------|
A|----------------------------------------------------------------------------|
E|----------------------------------------------------------------------------|


p = pull-off
Tap to rate this tab
# A B C D E F G H I J K L M N O P Q R S T U V W X Y Z