Song name
# A B C D E F G H I J K L M N O P Q R S T U V W X Y Z

Misc Computer Games - Lemmings - Level 8 tab

Lemmings Level 8 (also called Not as Complicated as it Looks)
link to the song-
http://www.youtube.com/watch?v=ns77NgH6JOk&feature=related

E-----0-5---9-10-9--5--2--0--------------0-5-9h10p9-5-2-5-0------|
B-2-3------------------------3-0----2--3---------------------3---|
G----------------------------------------------------------------|
D----------------------------------------------------------------|
A----------------------------------------------------------------|
E----------------------------------------------------------------|

E-------------------------------------------------|
B-2------0---2-3-2---0--2----0---2-3-2----0-------|
G-----2------------2-------2------------2---------|
D-------------------------------------------------|
A-------------------------------------------------|
E-------------------------------------------------|

E-9-10-9---9-10-9---7-9-7---4-5-7-12---|
B--------------------------------------|
G--------------------------------------|
D--------------------------------------|
A--------------------------------------|
E--------------------------------------|

E--9-10-9---9-10-9---7-9-7---4-5-7-4----|
B---------------------------------------|
G---------------------------------------|
D---------------------------------------|
A---------------------------------------|
E---------------------------------------|

E-9-10-9---9-10-9---7-9-7---4-5-7-12-----|
B----------------------------------------|
G----------------------------------------|
D----------------------------------------|
A----------------------------------------|
E----------------------------------------|

E--9-10-9---9-10-9---7-9-7---4-5-7-4-----|
B----------------------------------------|
G----------------------------------------|
D----------------------------------------|
A----------------------------------------|
E----------------------------------------|

E--6---6---6----5--5--6--8--6--5---6--11---10--6--6---|
B-----------------------------------------------------|
G-----------------------------------------------------|
D-----------------------------------------------------|
A-----------------------------------------------------|
E-----------------------------------------------------|

E-5--6--8--5--6------|
B--------------------|
G--------------------|
D--------------------|
A--------------------|
E--------------------|
Tap to rate this tab
# A B C D E F G H I J K L M N O P Q R S T U V W X Y Z