Song name
# A B C D E F G H I J K L M N O P Q R S T U V W X Y Z

Misc Computer Games - Wave Race 64 - Sunset Beach tab

Sunset Bay - Waverace 64
Stage intro piano  (welcome to Sunset Bay)
E--0--2--4--5--2---5---12---7-----------------------|
B---------------------------------------------------|
G---------------------------------------------------|
D---------------------------------------------------|
A---------------------------------------------------|
E---------------------------------------------------|

E-----------------------3--13--12--8--10--12--13--12--10--8----|
B--------------------------------------------------------------|
G--------------------------------------------------------------|
D----0--2--3---------------------------------------------------|
A-3------------------------------------------------------------|
E-------0--1---------------------------------------------------|

E-3--13--12--8--10--12--13--12--15--15--13--12-13---------|
B---------------------------------------------------------|
G---------------------------------------------------------|
D---------------------------------------------------------|
A---------------------------------------------------------|
E---------------------------------------------------------|

E--12--10--8--7--8--12--8--7--8--5-------------------|
B----------------------------------------------------|
G----------------------------------------------------|
D----------------------------------------------------|
A----------------------------------------------------|
E----------------------------------------------------|

E----------------------------------------------------|
B--------------------0----1--------------------------|
G-----------1---2------------------------------------|
D--2---4----------------------2---3--3---3---3-------|
A---------------0----2----3--------------------------|
E--0---2----4-----------------0---1--1---1---1-------|

repeat as necessary
Tap to rate this tab
# A B C D E F G H I J K L M N O P Q R S T U V W X Y Z