Song name
# A B C D E F G H I J K L M N O P Q R S T U V W X Y Z

Misc Computer Games - Mario Kart 64 Koopa Troopa Beach tab

Mario Kart 64 Koopa Troopa Beach
this is the steel drum part
E-12-12-11-11-9-9-7-7-7-5-5-4-4-5-5-5-7-7-9-7-9-7-----|
B-----------------------------------------------------|
G-----------------------------------------------------|
D-----------------------------------------------------|
A-----------------------------------------------------|
E-----------------------------------------------------|

E-4-7-7-4-4-7-6-5-5-9-9-14-14-12-11-9-7-11-7------|
B-------------------------------------------------|
G-------------------------------------------------|
D-------------------------------------------------|
A-------------------------------------------------|
E-------------------------------------------------|

E-12-12-11-11-9-9-7-7-7-5-5-4-4-5-5-5-7-7-9-7-9-7-----|
B-----------------------------------------------------|
G-----------------------------------------------------|
D-----------------------------------------------------|
A-----------------------------------------------------|
E-----------------------------------------------------|

E-4-4-5-5-7-7-4-4-4-5-9-9-14-14-12-11-9-12-14-12-14-12------|
B-----------------------------------------------------------|
G-----------------------------------------------------------|
D-----------------------------------------------------------|
A-----------------------------------------------------------|
E-----------------------------------------------------------|

E-10-10----15-14---15-14---15-17----14-14-14-------15-15----15-15-15----15-17--|
B------------------------------------------------------------------------------|
G------------------------------------------------------------------------------|
D------------------------------------------------------------------------------|
A------------------------------------------------------------------------------|
E------------------------------------------------------------------------------|
Tap to rate this tab
# A B C D E F G H I J K L M N O P Q R S T U V W X Y Z