Song name
# A B C D E F G H I J K L M N O P Q R S T U V W X Y Z

Misc Computer Games - Mario Kart 64 Toads Turnpike tab

Toads Turnpike
E----------------------------------------------------------------|
B-14--------------8-9-11-9-8-6-9-8-4---------8-9-11-9-8-6-9-8-8--|
G----------------------------------------------------------------|
D----------------------------------------------------------------|
A----------------------------------------------------------------|
E----------------------------------------------------------------|

E----------------------------------------------------------------|
B-7-9-10--12-9-10-7-------------7-9-10--12-9-10-12--14--15-------|
G----------------------------------------------------------------|
D----------------------------------------------------------------|
A----------------------------------------------------------------|
E----------------------------------------------------------------|

E----------------------------------------------------------------|
B-14---15---16---17---14--15--16---17---14-----------------------|
G----------------------------------------------------------------|
D----------------------------------------------------------------|
A----------------------------------------------------------------|
E----------------------------------------------------------------|

E----------------------------------------------------------------|
B-8-9-11-9-8-6-9-8-4---------8-9-11-9-8-6-9-8-8------------------|
G----------------------------------------------------------------|
D----------------------------------------------------------------|
A----------------------------------------------------------------|
E----------------------------------------------------------------|
Tap to rate this tab
# A B C D E F G H I J K L M N O P Q R S T U V W X Y Z