Song name
# A B C D E F G H I J K L M N O P Q R S T U V W X Y Z

Misc Computer Games - Upsell - Left 4 Dead 2 Opening tab

e|----------------------------------------------------|
B|----------------------------------------------------|
G|----------------------------------------------------|
D|2----5--------9-10-------5-10-9-8-------------------|
A|----------------------------------------------------|
D|----------------------------------------------------|

e|----------------------------------------------------|
B|--------------------------------3-------------------|
G|----------------------------------------------------|
D|---9-8---6--8--8--6-5-6--5-5-3----9-10--------------|
A|----------------------------------------------------|
D|----------------------------------------------------|

e|----------------------------------------------------|
B|----------------------------------------------------|
G|7-7-7-7-7\-----------------7-7-7-7-7\---------------|
D|7-7-7-7-7\--0-3-3-3p2h3p2--7-7-7-7-7\--0-3-3-3-2-2-2|
A|5-5-5-5-5\--0-3-3-3p2h3p2--5-5-5-5-5\--0-3-3-3-2-2-2|
D|------------0-3-3-3p2h3p2--------------0-3-3-3-2-2-2|

e|----------------------------------------------------|
B|----------------------------------------------------|
G|7-7-7-7-7\-----------------7-7-7-7-7\---------------|
D|7-7-7-7-7\--0-3-3-3p2h3p2--7-7-7-7-7\--0-3-3-3-5-5-5|
A|5-5-5-5-5\--0-3-3-3p2h3p2--5-5-5-5-5\--0-3-3-3-5-5-5|
D|------------0-3-3-3p2h3p2--------------0-3-3-3-5-5-5|

e|---------------------------------------|
B|---------------------------------------|
G|---------------------------------------|
D|0-3-5-0-3-0-0-0-3-5-0-3-5-0-3-0-0-0-3-0|
A|0-3-5-0-3-0-0-0-3-5-0-3-5-0-3-0-0-0-3-0|
D|0-3-5-0-3-0-0-0-3-5-0-3-5-0-3-0-0-0-3-0|
Tap to rate this tab
 
# A B C D E F G H I J K L M N O P Q R S T U V W X Y Z