Song name
# A B C D E F G H I J K L M N O P Q R S T U V W X Y Z

Misc Computer Games - Mortal Kombat Theme tab

Mortal Kombat Theme

Intro

-------------0----------0---3---0-------------------------------------|
-----1---3-----3----1-1---1---1---1------0---1---3-1---------1---1-0--|
-2-2---2---2-------------------------0-0---0---0---------2------------|
-----------------------------------------------------3-3---3---3------| x2
----------------------------------------------------------------------|
----------------------------------------------------------------------|

Main Riff

-----------------------------------------------------------|
-----------------------------------------------------------|
-2-2-2-2--0--5--2-2-2-2--0-----2-2-2-2--0--5--2-2-2-2222---|
-2-2-2-2--0--5--2-2-2-2--0--2--2-2-2-2--0--5--2-2-2-2222---| x2
-0-0-0-0-----3--0-0-0-0-----2--0-0-0-0-----3---------------|
----------------------------0------------------------------|

Chorus

--------------------------------|
---5----------------------------|
-2---2-5-2-3-2-5-2p10-----------|    2p10 is 2 then 1 then 0
--------------------------------| x3
--------------------------------|
--------------------------------|

--------------------------------|
---5----------------------------|
-2---2-5--0-0-0-2---------------|
--------------------------------|
--------------------------------|
--------------------------------|

Name calling
(Kano, Liu Kang, Rayden, Johnny Cage, Scorpion Sub-Zero, Sonya)

-------------------------------|
-------------------------------|
-14-14-------------------15-14-|
-------14-14-12-12-10-10-------| Repeat as many times as necessary
-------------------------------|
-------------------------------|

The song then loops a few times , thanks for viewing
Tap to rate this tab
# A B C D E F G H I J K L M N O P Q R S T U V W X Y Z