Song name
# A B C D E F G H I J K L M N O P Q R S T U V W X Y Z

Misc Computer Games - Battlefield 2 - Mec Loading Theme Metal tab

Hey guys I'm Jake and this is my first tab. I picked it out ear from this Video: 
http://www.youtube.com/watch?v=f5mLrGFfDaw

It's in Drop D but you can play it in standard (but if you want to play the Power chords
at the end you need Drop D)

If you have any corrections, feel free to tell me at Jakoman7@yahoo.com or edit it
yourself into a second tab.

Distortion: íMucho Grande!

Watch the video to get the rhythm. ENJOY!


|--------------------------------------------------------------------------|
|--------------------------------------------------------------------------|
|--------------------------------------------------------------------------|
|-5-7-7-5-7~~--5h7p5p0~~--3h5p3-0~~--3h5h3-0~~--3h5p3-0~--0h1p0--0h1p0-----|
|--------------------------------------------------------------------------|
|--------------------------------------------------------------------------|

Play 2x
|--------------------------------------------------------------------------|
|-3/15---------------------------------------------------------------------|
|---------14-14-14-14-14-14-14---------------------------------------------|
|------------------------------15-15-15-15-15-15-15-12---------------------|
|--------------------------------------------------------------------------|
|--------------------------------------------------------------------------|

Play 4x
|--------------------------------------------------------------------------|
|-3/15----------------15-15-15----------15---------------------------------|
|-------13p12-12/10~~----------14-14-14------------------------------------|
|--------------------------------------------------------------------------|
|--------------------------------------------------------------------------|
|--------------------------------------------------------------------------|

Play 2x                                       (1st ending)
|----------------------------------------------|10~------------------------|
|----------------------------------------------|----13~--------------------|
|-------------------------11-12-11h12p11-------|--------14~----------------|
|-0/12----10-----------------------------13-12~|---------------------------|
|------12-----13p12p10h12----------------------|---------------------------|
|----------------------------------------------|---------------------------|

Play 2x
|--------------------------------------------------------------------------|
|------------------------------------11------------------------------------|
|-10~-12-------10~-12-------10-12h13----13p12h13-12p10h12-10-8-------------|
|--------13-10--------13-10------------------------------------------------|
|--------------------------------------------------------------------------|
|--------------------------------------------------------------------------|

Play 2x
|----------------------------------------------------------------------------|
|----------------------------8-----------------------------------------------|
|-7~-9------7~-9------7-9h10---10p9h10-9p7h9-7-5-----------------------------|
|------10-7------10-7--------------------------------------------------------|
|----------------------------------------------------------------------------|
|----------------------------------------------------------------------------|

OPTIONAL (need Drop D)
|-------------------------------------------|
|-------------------------------------------|
|-------------------------------------------|
|-3--5-3--2--0~~~~~~~~----------------------|
|-3--5-3--2--0~~~~~~~~----------------------|
|-3--5-3--2--0~~~~~~~~----------------------|
Tap to rate this tab
 
# A B C D E F G H I J K L M N O P Q R S T U V W X Y Z