Song name
# A B C D E F G H I J K L M N O P Q R S T U V W X Y Z

Misc Computer Games - Fairy Fountain tab

Took about an hour or two, but here it is. The FAIRY FOUNTAIN on BASS.
Was pretty cool being able to do this.
Please post comments about how I could do this better and corrections to make this tab better!

STANDARD TUNING (GDAE)
Verse 1
G|--14----------12----------11----------12----------|
D|-----12----------12----------12----------12-------|
A|--------13-10-------13-10-------13-10-------13-10-|
E|--------------------------------------------------|
Verse 2
G|--12----------10----------9----------10----------|
D|-----11----------11---------11----------11-------|
A|--------12----------12---------12----------12----|
E|-----------13----------13---------13----------13-|
Verse 3
G|--10---------9---------8---------9---------|
D|-----9---------9---------9---------9-------|
A|-------11--------10--------11--------11----|
E|----------12--------13--------13--------13-|
Verse 4
G|--9--------7--------6--------7--------|
D|----7--------7--------7--------7------|
A|------8--------8--------8--------8----|
E|--------10-------10-------10-------10-|


G|--14--12--11--12---12--10--9--10---10--9--8--9---9--7--6--7--|
D|-------------------------------------------------------------|
A|-------------------------------------------------------------|
E|-------------------------------------------------------------|


-Alan Gomez (Peanut Butter)
Tap to rate this tab
 
# A B C D E F G H I J K L M N O P Q R S T U V W X Y Z