Song name
# A B C D E F G H I J K L M N O P Q R S T U V W X Y Z

Misc Computer Games - Zelda 64 Song Of Storms tab

Hey there... I'm not much of a tab writer, I tend to write sheet music. Just thought I'd 
share something with you guys!
Listen to the song to get the timing. Have fun!


Guitar 1
|----1-1-----0-----1-1-----0------1-1-----0-----1-1-----0-|
|----3-3-----0-----1-1-----0------3-3-----0-----1-1-----0-|
|----2-2---0-------2-2---0--------2-2---0-------2-2---0---|
|--0-----2-------3-----2--------0-----2-------3-----2-----|
|---------------------------------------------------------|
|---------------------------------------------------------|


Guitar 1
|----1-1---0-----1-1---0--|
|----3-3---0-----1-1---0--|
|----2-2---0-----2-2---0--|
|--0-----2-----3-----2----|
|-------------------------|
|-------------------------|
Guitar 2
|--------10---------10---12--13-12-13-12--------|
|----------------------------------------13-10--|
|-----10---------10-----------------------------|
|--12---------12--------------------------------|
|-----------------------------------------------|
|-----------------------------------------------|


Guitar 1
|----1-1---1-----1-1---0--|
|----3-3---3-----3-3---2--|
|--3-------2---3-----2----|
|--------3----------------|
|-------------------------|
|-------------------------|
Guitar 2
|-------------------------------------|
|--10-----------10---10---------------|
|---------10-12--------------10-12-9--|
|-----12-----------------12-----------|
|-------------------------------------|
|-------------------------------------|


Guitar 1
|----1-1---0-----1-1---0-----1-1---1--|
|----3-3---0-----1-1---0-----3-3---3--|
|----2-2---0-----2-2---0---3-------2--|
|--0-----2-----3-----2-----------3----|
|-------------------------------------|
|-------------------------------------|
Guitar 2
|--------10---------10---12--13-12-13-12--------------------------------|
|----------------------------------------13-10---10------------10---10--|
|-----10---------10--------------------------------------10-12----------|
|--12---------12-------------------------------------12-----------------|
|-----------------------------------------------------------------------|
|-----------------------------------------------------------------------|


Guitar 1
|----1-1-----0-----1-1-----0--|
|----3-3-----0-----1-1-----0--|
|----2-2---0-------2-2---0----|
|--0-----2-------3-----2------|
|-----------------------------|
|-----------------------------|
Guitar 2
|------|
|------|
|------|
|--12--|
|------|
|------|

Repeat ad nauseam!
Tap to rate this tab
# A B C D E F G H I J K L M N O P Q R S T U V W X Y Z