Song name
# A B C D E F G H I J K L M N O P Q R S T U V W X Y Z

Misc Computer Games - Mario Theme tab

e|------------3---------------------------5-----------------|
B|--5-5-5---5-------------------------5-8---6-8-5-----------|
G|--------5---------5-----------------------------8-10-7----|
D|---------------5----5----7-9-8-7--5-----------------------|
A|----------------------7-----------------------------------|
E|----------------------------------------------------------|

e|-----------------------5----------------------------------|
B|-------------------5-8---6-8-5----------------------------|
G|-5-----------------------------8-10-7---------------------|
D|---5----7-9-8-7--5----------------------------------------|
A|-----7----------------------------------------------------|
E|----------------------------------------------------------|

e|-----------------------------------8-8-8------------------|
B|--8-7-6---5--------------8-7-6---5------------------------|
G|--------8-------5---5-7--------8--------------------------|
D|------------6-7---7---------------------------------------|
A|----------------------------------------------------------|
E|----------------------------------------------------------|

e|----------------------------------------------------------|
B|--8-7-6---5-----------------------------------------------|
G|--------8-------5---5-7---8-7-5---------------------------|
D|------------6-7---7---------------------------------------|
A|----------------------------------------------------------|
E|----------------------------------------------------------|

e|----------------------------------------------------------|
B|-------------5------------------5-------------------------|
G|---5-5-5-5-7---5------5-5-5-5-7---------------------------|
D|-----------------7-5--------------------------------------|
A|----------------------------------------------------------|
E|----------------------------------------------------------|

e|-------------------------------3--------------------------|
B|------------5--------5-5-5---5----------------------------|
G|--5-5-5-5-7---5------------5------------------------------|
D|----------------7-5---------------5-----------------------|
A|----------------------------------------------------------|
E|----------------------------------------------------------|

e|----------------------------------------------------------|
B|--5---------6-6-------10-10-10-8--------------------------|
G|----5----------------------------10-9---------------------|
D|------5-6-7-----7---9-----------------10-7-5--------------|
A|----------------------------------------------------------|
E|----------------------------------------------------------|

e|----------------------------------------------------------|
B|--5---------6-6-------------------------------------------|
G|----5-----------------10-10-10-9-7-5----------------------|
D|------5-6-7-----7---9-------------------------------------|
A|----------------------------------------------------------|
E|----------------------------------------------------------|

MArio JUMPS

e|--2/9--|
B|-------|
G|-------|
D|-------|
A|-------|
E|-------|
Tap to rate this tab
# A B C D E F G H I J K L M N O P Q R S T U V W X Y Z