Song name
# A B C D E F G H I J K L M N O P Q R S T U V W X Y Z

Misc Computer Games - Mortal Kombat Theme tab

Mortal Kombat theme
Tabbed by: Maverick "the Tank" Geeslin
If you have any questions or suggestions for a song you'd like for me to tab, contact 
me: pinkygeeslin@myspace.com

"Test your might..."

Lead guitar
e|-----------------------------------------------------------------|
B|-----------------------------------------------------------------|
G|-----------------------------------------------------------------|
D|---------------------2---5---2-----------------------------------|
A|-0-0-3-0-5-0-7-5-3-3---3---3---3-----2---5---2-------0---3---0---|
E|---------------------------------3-3---3---3---3-1-1---1---1---1-|x2

Bass guitar (comes in 2nd time)
G|-----------------------------------------------------------------|
D|---------------------2---5---2-----------------------------------|
A|-0-0-3-0-5-0-7-5-3-3---3---3---3-----2---5---2-------0---3---0---|
E|---------------------------------3-3---3---3---3-1-1---1---1---1-|

"MORTAL KOMBAT!"

Lead Guitar
e|-----------------------------------------------------------------|
B|-----------------------------------------------------------------|
G|-----------------------------------------------------------------|
D|-5-5-5-5-3-7-5-5-5-5-3-0-5-5-5-5-3-7-5-5-5-55-55-----------------|
A|-5-5-5-5-3-7-5-5-5-5-3-0-5-5-5-5-3-7-5-5-5-55-55-----------------|
E|-5-5-5-5-3-7-5-5-5-5-3-0-5-5-5-5-3-7-5-5-5-55-55-----------------|x2

Bass guitar
G|-----------------------------------------------------------------|
D|-----------------------------------------------------------------|
A|-----------------------------------------------------------------|
E|-5-5-5-5-3-7-5-5-5-5-3-0-5-5-5-5-3-7-5-5-5-55-55-----------------|x2

Lead guitar
e|-----------------|   e|----------------|
B|-----------------|   B|----------------|
G|-----------------|   G|----------------|
D|-33-33-33-33-3/2-|   D|-33-33-33-3/2-1-|
A|-33-33-33-33-3/2-|   A|-33-33-33-3/2-1-|
E|-----------------|x3 E|----------------|

Bass guitar
G|-----------------------------------------------------------------|
D|-----------------------------------------------------------------|
A|-----------------------------------------------------------------|
E|-5-5-5-5-3-7-5-5-5-5-3-0-5-5-5-5-3-7-5-5-5-55-55-----------------|x2

Guitar stops at "Excellent"

"Kano, Liu Kang, Raiden, Johnny Cage, Scorpion, Sub-Zero, Sonya"

Bass guitar
G|---------|
D|---------|
A|---------|
E|-22212---|x16

"MORTAL KOMBAT!"

Lead guitar
e|-----------------------------------------------------------------|
B|-----------------------------------------------------------------|
G|-----------------------------------------------------------------|
D|---------------------2---5---2-----------------------------------|
A|-0-0-3-0-5-0-7-5-3-3---3---3---3-----2---5---2-------0---3---0---|
E|---------------------------------3-3---3---3---3-1-1---1---1---1-|

Bass guitar
G|-----------------------------------------------------------------|
D|-----------------------------------------------------------------|
A|-----------------------------------------------------------------|
E|-5-5-5-5-3-7-5-5-5-5-3-0-5-5-5-5-3-7-5-5-5-55-55-----------------|

"Fight!"

Lead Guitar
e|-----------------------------------------------------------------|
B|-----------------------------------------------------------------|
G|-----------------------------------------------------------------|
D|-5-5-5-5-3-7-5-5-5-5-3-0-5-5-5-5-3-7-5-5-5-55-55-----------------|
A|-5-5-5-5-3-7-5-5-5-5-3-0-5-5-5-5-3-7-5-5-5-55-55-----------------|
E|-5-5-5-5-3-7-5-5-5-5-3-0-5-5-5-5-3-7-5-5-5-55-55-----------------|

Bass guitar
G|-----------------------------------------------------------------|
D|-----------------------------------------------------------------|
A|-----------------------------------------------------------------|
E|-5-5-5-5-3-7-5-5-5-5-3-0-5-5-5-5-3-7-5-5-5-55-55-----------------|

"Mortal Kombat!"

Lead guitar
e|-----------------|   e|----------------|
B|-----------------|   B|----------------|
G|-----------------|   G|----------------|
D|-33-33-33-33-3/2-|   D|-33-33-33-3/2-1-|
A|-33-33-33-33-3/2-|   A|-33-33-33-3/2-1-|
E|-----------------|x3 E|----------------|

Bass guitar
G|-----------------------------------------------------------------|
D|-----------------------------------------------------------------|
A|-----------------------------------------------------------------|
E|-5-5-5-5-3-7-5-5-5-5-3-0-5-5-5-5-3-7-5-5-5-55-55-----------------|x2

Guitar stops at "Excellent"

"Kano, Liu Kang, Raiden, Johnny Cage, Scorpion, Sub-Zero, Sonya"

Bass guitar
G|---------|
D|---------|
A|---------|
E|-22212---|x16

"MORTAL KOMBAT!"

Lead guitar
e|-----------------------------------------------------------------|
B|-----------------------------------------------------------------|
G|-----------------------------------------------------------------|
D|---------------------2---5---2-----------------------------------|
A|-0-0-3-0-5-0-7-5-3-3---3---3---3-----2---5---2-------0---3---0---|
E|---------------------------------3-3---3---3---3-1-1---1---1---1-|x2

Bass guitar
G|-----------------------------------------------------------------|
D|-----------------------------------------------------------------|
A|-----------------------------------------------------------------|
E|-5-5-5-5-3-7-5-5-5-5-3-0-5-5-5-5-3-7-5-5-5-55-55-----------------|x2

"Fight!"

Lead guitar
e|-----------------|   e|----------------|
B|-----------------|   B|----------------|
G|-----------------|   G|----------------|
D|-33-33-33-33-3/2-|   D|-33-33-33-3/2-1-|
A|-33-33-33-33-3/2-|   A|-33-33-33-3/2-1-|
E|-----------------|x3 E|----------------|

Bass guitar
G|-----------------------------------------------------------------|
D|-----------------------------------------------------------------|
A|-----------------------------------------------------------------|
E|-5-5-5-5-3-7-5-5-5-5-3-0-5-5-5-5-3-7-5-5-5-55-55-----------------|x2
Tap to rate this tab
# A B C D E F G H I J K L M N O P Q R S T U V W X Y Z