Guitaretab - guitar tabs
Song name
# A B C D E F G H I J K L M N O P Q R S T U V W X Y Z

Misc Computer Games - Dragonball Z Theme tab

----------------------------------------------------------------------------
		           Dragonball Z Theme
----------------------------------------------------------------------------
Tabbed by:Matt Spencer
Email:matt_spncr@yahoo.com

Tuning: Standard

Play this with a fare amount of distortion and keep the Treble Pretty High
Once You've Sorted it out Its Quiet easy To Play.

Main Riff
e|--------------------------------------------------------------------------
B|--------------------------------------------------------------------------
G|--------------------------------------------------------------------------
D|--2-2-0-2-2/5b-2----2-2-0-2---------2-2-0-2--22-0-3/5b---2-2-0-2----------
A|--------------------------------------------------------------------------
E|--------------------------------------------------------------------------

e|--------------------------------------------------------------------------
B|----------------------------------------------------------------------12~|
G|-------------------------------------------------------------------------|
D|--2-2-0-2-2/5b-2----2-2-0-2---------2-2-0-2--22-0-3/5b---2-2-0-2---------|
A|-------------------------------------------------------------------------|
E|-------------------------------------------------------------------------|
[ Tab from: http://www.guitaretab.com/m/misc-computer-games/29941.html ]
1st Solo Part. I tend to try and hit each one about 6 times (really quick)
e|-------------------------------------------------------------------------|
B|-------------------------------------------------------------------------|
G|--2*-5*-4*-1*-2*-9*-8*-5*-2*-5*-4*-1*-8*-9*-11*--------------------------|
D|-------------------------------------------------------------------------|
A|-------------------------------------------------------------------------|
E|-------------------------------------------------------------------------|

Then Main Riff Again
e|-------------------------------------------------------------------------|
B|-------------------------------------------------------------------------|
G|-------------------------------------------------------------------------|
D|--2-2-0-2-2/5b-2----2-2-0-2---------2-2-0-2--22-0-3/5b---2-2-0-2---------|
A|-------------------------------------------------------------------------|
E|-------------------------------------------------------------------------|

e|-------------------------------------------------------------------------|
B|----------------------------------------------------------------------12b|
G|-------------------------------------------------------------------------|
D|--2-2-0-2-2/5b-2----2-2-0-2---------2-2-0-2--22-0-3/5b---2-2-0-2---------|
A|-------------------------------------------------------------------------|
E|-------------------------------------------------------------------------|

2nd Solo (Really Quick Again)
e|-------------------------------------------------------------------------|
B|-----------------------------------------------------------------14*-----|
G|------------------------------------------------10*-12*-13*-15*----------|
D|--2*-5*-4*-1*-2*-9*-8*-5*-2*-5*-4*-1*-8*-9*-11*------------------------7-|
A|-----------------------------------------------------------------------7-|
E|-----------------------------------------------------------------------5-|

End

any Comments please e-mail me. PLEASE RATE
This is a great song its a shame its so sort.

Enjoy
Related for Dragonball Z Theme tab
Advertisement will be closed in 10 seconds