Song name
# A B C D E F G H I J K L M N O P Q R S T U V W X Y Z

Misc Computer Games - Runescape Theme tab

This is the song for Runescape Main theme.
Tuning - Standard (EADGBe)

Intro

e|---------------------|
B|---------------------|
G|---7--7/10-9----5/7~-|
D|-5-----------10------|
A|---------------------|
E|---------------------|

You will have to work this part out for yourself


e|-------------------------------------------------|
B|-------------------------------------------------|
G|---7~-------------------7~--10p9----7--10p9----7-|
D|-5----8-7-5-8-7-5~----5----------10---------10---|
A|--------------------5----------------------------|
E|-------------------------------------------------|


e|----------------------------------|
B|----------------------------------|
G|------3p2---5-3-------------------|
D|---5~----5------5~---5~---5-3-----|
A|-3-----------------3----------5-3-|
E|----------------------------------|

Again you will have to figure this part out yourself.

Play this again, after the crazy bit.

e|-------------------------------------------------|
B|-------------------------------------------------|
G|---7~-------------------7~--10p9----7--10p9----7-|
D|-5----8-7-5-8-7-5~----5----------10---------10---|
A|--------------------5----------------------------|
E|-------------------------------------------------|


e|----------------------------------|
B|----------------------------------|
G|------3p2---5-3-------------------|
D|---5~----5------5~---5~---5-3-----|
A|-3-----------------3----------5-3-|
E|----------------------------------|

After that play this.

e|----------------------------|
B|---------11--------------13-|
G|---12-14----14-12-10-12~----|
D|----------------------------|
A|----------------------------|
E|----------------------------|

e|-------------------------|
B|---------11--------------|
G|---12-14----14-12-10-9~--|
D|-------------------------| 
A|-------------------------| x2
E|-------------------------|

Play this bit after the Middle bit

e|-------------------------------------------------|
B|-------------------------------------------------|
G|---7~-------------------7~--10p9----7--10p9----7-|
D|-5----8-7-5-8-7-5~----5----------10---------10---|
A|--------------------5----------------------------|
E|-------------------------------------------------|


e|----------------------------------|
B|----------------------------------|
G|------3p2---5-3-------------------|
D|---5~----5------5~---5~---5-3-----|
A|-3-----------------3----------5-3-|
E|----------------------------------|

Thats it. This is the main part there is some bits missing
so you will have to work it out yourself. Please comment and rate
and have fun \m/
Tap to rate this tab
# A B C D E F G H I J K L M N O P Q R S T U V W X Y Z