Song name
# A B C D E F G H I J K L M N O P Q R S T U V W X Y Z

Misc Computer Games - Morrowind Theme tab

-------------------------------------------------------------------------------
			     Morrowind Theme
-------------------------------------------------------------------------------
Tabbed by: Kyle Lemieux
Key:
h - hammer on
p - pull off
/ - slide down

Tuning: Standard

e|-----------3--3-6----------------------------3--3-6-8--6-10-8--------------|
B|--3-4--4-6--------6--6h8p6-4/3------3-4--4-6-------------------------------|
G|-5-----------------------------5--5----------------------------------------|
D|---------------------------------------------------------------------------|
A|---------------------------------------------------------------------------|
E|---------------------------------------------------------------------------|

e|-8-10-11-10-8--------------------------------------------------------------|
B|--------------11-9-8-------------------------------------------------------|
G|----------------------10-8-12--8-------------------------------------------|
D|---------------------------------12-10-------------------------------------|
A|---------------------------------------------------------------------------|
E|---------------------------------------------------------------------------|

Tap to rate this tab
# A B C D E F G H I J K L M N O P Q R S T U V W X Y Z