Song name
# A B C D E F G H I J K L M N O P Q R S T U V W X Y Z

Misc Computer Games - Bomberman - Bgm 1 tab

Title:     Bomberman BGM 1
Game:      Bomberman
Composer:  June chikuma
Year:      1983
Tabber:    RyskaG (ryska90@gmail.com)


    E  S S E  S S E  E  Q      E  S S E  S S E  S S S S E  
E||--------------------------|-----------------------------|
B||----0---------------------|-----------------------------|
G||-------------1-2--2--1----|----2----------0----0--------|
D||--------0--4--------------|-----------2-4----4----------|
A||-2----2-------------------|-0----0-4-------------0---0--|
E||--------------------------|------------------------3----|


   E  S S E  S S E  E  Q      E  S S E  S S E  E  S S E
||--------------------------|----------------------------|
||--------------------------|----------------------------|
||--------------------------|----------------------------|
||----4---2--1-2----4-------|----4---2--1-2----4---------|
||--------------------------|-------------------------1--|
||-2----2--------2-----2----|-2----2--------2-----2-4----|


Duration Legend
---------------
W - whole
H - half
Q - quarter
E - 8th
S - 16th
L - tied note
. - dotted note
Tap to rate this tab
# A B C D E F G H I J K L M N O P Q R S T U V W X Y Z