Song name
# A B C D E F G H I J K L M N O P Q R S T U V W X Y Z

Misc Computer Games - Chrono Trigger - Wind Scene tab

Tabbed by: xxThreeCheersxx

I'm pretty sure this is right.  It's only the first part of the song, but if I figure 
the rest out I'll post it on here.

If there are any errors let me know, this is my first tab so there's bound to be 
something transcribed wrong.

This is a beautiful song, and I hope you all enjoy playing it!

e|-----0-|--1--0------------|--------------------|-------------0---1--------|
B|--3----|--------1----3--3-|-1------------------|---------1---1--------1---|
G|-------|-----------2------|----2----0---2---0--|-------2-----0--------0---|
D|-------|--0---------------|------3------3---2--|-2--3-----------------2---|
A|-------|------------------|-0------------------|--------------------------|
E|-------|------------------|--------------------|--------------------------|

e|-----0-|--1--0------------|--------------------|-------------0------------|
B|--3----|--------1----3--3-|-1------------------|---------1---1--3---1---3-|
G|-------|-----------2------|----2----0---2---0--|-------2-----0------2-----|
D|-------|--0---------------|------3------3---2--|-2--3---------------2-----|
A|-------|------------------|-0------------------|--------------------------|
E|-------|------------------|--------------------|--------------------------|
Tap to rate this tab
# A B C D E F G H I J K L M N O P Q R S T U V W X Y Z