Song name
# A B C D E F G H I J K L M N O P Q R S T U V W X Y Z

Misc Computer Games - Rbi Baseball Batting Themes tab

----------------------------------------------------------------------------
			RBI Baseball Batting Theme
----------------------------------------------------------------------------
Tabbed by: normpollock
Email: pollock.norm@yahoo.com

I'm not going to be like most people and say this is 100% correct.
What I will say is that it's my first tab and I think it sounds like the video game's music.
A video game I played way too much of as a child.
It is a very fun and easy song to play.

Tuning:EADGBe

e|--------------------------------------------------------------------------|
B|--------------------------------------------------------------------------|
G|-------------2--------------2--------------2-2-5---5--7--7-7-7--5--5-5-5--|
D|-----3--3---3-3-----3--3---3-3-----3--3---3-3---------------7---------5---|
A|--3--------------3--------------3-----------------------------------------|
E|--------------------------------------------------------------------------|

e|----------------------------|
B|----------------------------|
G|--3-3-3--2-2-2---------3-5--| Repeat as many times as you'd like!
D|----------------5--5-5------|
A|----------------------------|
E|----------------------------|
Tap to rate this tab
# A B C D E F G H I J K L M N O P Q R S T U V W X Y Z