Song name
# A B C D E F G H I J K L M N O P Q R S T U V W X Y Z

Misc Computer Games - Pokemon - Fallarbor Town tab

                                         Pokemon
                                  FALLARBOR TOWN THEME	
                                Ruby - Sapphire - Emerald


     H.           E  E     H.           E  E     Q    Q    Q    Q     
E||--1------------------|---------------------|------------1----3----|
B||---------------4--3--|--1---------------1--|--3----4--------------|
G||---------------------|---------------3-----|----------------------|
D||---------------------|---------------------|----------------------|
A||---------------------|---------------------|----------------------|
E||---------------------|---------------------|----------------------|


  W                   H.           E  E     Q    Q    Q    Q     
--1----------------|--3------------5--6--|--1-------------------|
-------------------|---------------------|-------3---------4----|
-------------------|---------------------|------------3---------|
-------------------|---------------------|----------------------|
-------------------|---------------------|----------------------|
-------------------|---------------------|----------------------|


  H.           E  E     H.           E  E     H.           E  E   
---------------------|---------------1--2--|--3------------1-----|
--3------------4--3--|--1------------------|------------------4--|
---------------------|---------------------|---------------------|
---------------------|---------------------|---------------------|
---------------------|---------------------|---------------------|
---------------------|---------------------|---------------------|


                                 |----3----|                           
  Q    Q    H           H        Q    Q    Q       Q    Q    H         
--1------------------|--------------------------|------------1--------|
-------3-------------|--4--------4----3----1----|--3----4-------------|
------------3--------|--------------------------|---------------------|
---------------------|--------------------------|---------------------|
---------------------|--------------------------|---------------------|
---------------------|--------------------------|---------------------|


  H        E  E  E  E     Q    Q    Q    Q       H        Q    E  E   
--3--------L--3--5--6--|--1-------------------|----------------------|
-----------------------|-------3---------4----|--3--------1----------|
-----------------------|------------3---------|----------------0--2--|
-----------------------|----------------------|----------------------|
-----------------------|----------------------|----------------------|
-----------------------|----------------------|----------------------|


  H        E  E  E  E     H.           E  E     H.           E  E   
-----------1-----------|--1------------------|---------------------|
--------------4--3--4--|---------------4--3--|--1---------------1--|
--3--------------------|---------------------|---------------3-----|
-----------------------|---------------------|---------------------|
-----------------------|---------------------|---------------------|
-----------------------|---------------------|---------------------|


  Q    Q    Q    Q       H.           E  E     H        E  E  E  E   
------------1----3----|--1---------------1--|--3-----------3--5--6--|
--3----4--------------|---------------4-----|-----------------------|
----------------------|---------------------|-----------------------|
----------------------|---------------------|-----------------------|
----------------------|---------------------|-----------------------|
----------------------|---------------------|-----------------------|


  Q    Q    Q    Q       H.           E  E     H.           E  E   
--1-------------------|---------------------|---------------1--2--|
-------3---------4----|--3------------4--3--|--1------------------|
------------3---------|---------------------|---------------------|
----------------------|---------------------|---------------------|
----------------------|---------------------|---------------------|
----------------------|---------------------|---------------------|


                                                          |----3----|     
  H        E  E  E  E     Q    Q    Q    Q       H        Q    Q    Q     
--3-----------3--5--3--|--1-------------------|--------------------------|
-----------------------|-------3--------------|--4--------4----3----1----|
-----------------------|------------3---------|--------------------------|
-----------------------|----------------------|--------------------------|
-----------------------|----------------------|--------------------------|
-----------------------|----------------------|--------------------------|


  Q    Q    Q    Q       H        E  E  E  E      Q    Q    Q    Q     
------------1----2----|--3-----------3--5--6--|--10----8----6---------|
--3----4--------------|-----------------------|------------------6----|
----------------------|-----------------------|-----------------------|
----------------------|-----------------------|-----------------------|
----------------------|-----------------------|-----------------------|
----------------------|-----------------------|-----------------------|


                                           Repeat infinitely    
  H        Q    E  E     H        E  E  E  E                 99x
----------------------|-----------1---------------------------||
--3--------1----------|--------------4--3--4------------------||
----------------0--2--|--3-----------------------------------*||
----------------------|--------------------------------------*||
----------------------|---------------------------------------||
----------------------|---------------------------------------||




Duration Legend
---------------
W - whole
H - half
Q - quarter
E - 8th
S - 16th
T - 32nd
X - 64th
. - note dotted
|-n-|  - n-tuplets


Tablature Legend
----------------
L - tied note
x - dead note
g - grace note
(n) - ghost note
> - accentuded note
NH - natural harmonic
AH - artificial harmonic
TH - tapped harmonic
SH - semi harmonic
PH - pitch harmonic
h - hammer on
p - pull off
b - bend
br - bendRelease
pb - preBend
pbr - preBendRelease
brb - bendReleaseBend
\n/ - tremolo bar dip
\n - tremolo bar dive
-/n - tremolo bar Release up
/n\ - tremolo bar inverted dip
/n - tremolo bar return
-\n - tremolo bar Release down
S - shift slide
s - legato slide
/ -  slide into from below or out of upwards
\ -  slide into from above or out of downwards
~ - vibrato
W - wide vibrato
tr - trill
TP - tremolo picking
T - tapping
S - slap
P - pop
< - fade in
^ - brush up
v - brush down
Tap to rate this tab
# A B C D E F G H I J K L M N O P Q R S T U V W X Y Z